Song name
# A B C D E F G H I J K L M N O P Q R S T U V W X Y Z

In Flames - Come Clarity tab

This is how to play In Flames´ "Come Clarity" without tune the guitar some steps down:

USE A CAPO ON FIRST FRET AND TUNE THE G-STRING ONE HALF STEP DOWN!


Intro: (play 2x)

e------------------------------------------------------------------------|
H---------0---------------1-0-------------------------------0h1p0--------|
F#------3---3-----------3-----3---------1-----1-----0-----3-------3------|
D-----2-------2p0-----3---------3-----0-----0-----0-----2-----------2----|
A---0-------------0-0-------------0-3-----2-----3-----0------------------|
E------------------------------------------------------------------------|

e------------------------------------------------------------------------|
H---------0---------------1-0---------------------------------1~---------|
F#------3---3-----------3-----3---------1-----1-----0-------1------------|
D-----2-------2p0-----3---------3-----0-----0-----0-------3--------------|
A---0-------------0-0-------------0-3-----2-----3-------3----------------|
E-----------------------------------------------------1------------------|

      (play again^^)

e------------------------------------------------------------------------------------------|
H------------------------------------------------------------------------------------------|
F#-------------------------------------------------------------------------8-10-11-10-8----|
D--7----10-9-7-----7---------7---7-9-7-9-10-7----10-9-7-----7-9-10-9-7------------------10-|
A----7----------10----10-8-----7--------------7----------10------------10------------------|
E------------------------------------------------------------------------------------------|

Verse:

e------------------------------------------------------------------------|
H---------0---------------1-0-------------------------------0h1p0--------|
F#------3---3-----------3-----3---------1-----1-----0-----3-------3------|
D-----2-------2p0-----3---------3-----0-----0-----0-----2-----------2----|
A---0-------------0-0-------------0-3-----2-----3-----0------------------|
E------------------------------------------------------------------------|

e------------------------------------------------------------------------|
H---------0---------------1-0---------------------------------1~---------|
F#------3---3-----------3-----3---------1-----1-----0-------1------------|
D-----2-------2p0-----3---------3-----0-----0-----0-------3--------------|
A---0-------------0-0-------------0-3-----2-----3-------3----------------|
E-----------------------------------------------------1------------------|

Chorus:

e----------------------------------------------------------------------------|
H----------------------------------------------------------------------------|
F#---------------------------------------------------------------------------|
D---7-7-7-7-7-7-7-7--7-7-7-7-7-7-7-7--10-10-10-10-10-10-10-10--5-5-5-5-5-5-5-|
A---7-7-7-7-7-7-7-7--8-8-8-8-8-8-8-8--10-10-10-10-10-10-10-10--5-5-5-5-5-5-5-|
E---5-5-5-5-5-5-5-5--5-5-5-5-5-5-5-5--8--8--8--8--8--8--8--8---3-3-3-3-3-3-3-|

e---------------------------------------------|
H---------------------------------------------|
F#--8-8-8-8-8-8-8-8--11-11-11-11-11-11-11-11--|
D---7-7-7-7-7-7-7-7--10-10-10-10-10-10-10-10--|
A---5-5-5-5-5-5-5-5--8--8--8--8--8--8--8--8---|
E---------------------------------------------|


      (play again^^)


(just Jesper plays)

E-----------------------------------------------------------------------|
H-----------------------------------------------------------------------|
F#-5-----5-----5---5-----5-----5/6------6------6------5------5------5---|
D---7-----7-----7---7-----7----------7------7---7------7------7------7--|
A-----7-----7---------7-----7------8------8-------8------8------8-------|
E-----------------------------------------------------------------------|


Verse:

e------------------------------------------------------------------------|
H---------0---------------1-0-------------------------------0h1p0--------|
F#------3---3-----------3-----3---------1-----1-----0-----3-------3------|
D-----2-------2p0-----3---------3-----0-----0-----0-----2-----------2----|
A---0-------------0-0-------------0-3-----2-----3-----0------------------|
E------------------------------------------------------------------------|

e------------------------------------------------------------------------|
H---------0---------------1-0---------------------------------1~---------|
F#------3---3-----------3-----3---------1-----1-----0-------1------------|
D-----2-------2p0-----3---------3-----0-----0-----0-------3--------------|
A---0-------------0-0-------------0-3-----2-----3-------3----------------|
E-----------------------------------------------------1------------------|

(here you can play this, or repeat ^^ =)

e------------------------------------------------------------------------------------------|
H------------------------------------------------------------------------------------------|
F#-------------------------------------------------------------------------8-10-11-10-8----|
D--7----10-9-7-----7---------7---7-9-7-9-10-7----10-9-7-----7-9-10-9-7------------------10-|
A----7----------10----10-8-----7--------------7----------10------------10------------------|
E------------------------------------------------------------------------------------------|


Repeat the chorus

(Björn plays a solo. I could not find out, too)

(just Björn plays: )

e------------------------------------------------------------------------|
H---------0---------------1-0-------------------------------0h1p0--------|
F#------3---3-----------3-----3---------1-----1-----0-----3-------3------|
D-----2-------2p0-----3---------3-----0-----0-----0-----2-----------2----|
A---0-------------0-0-------------0-3-----2-----3-----0------------------|
E------------------------------------------------------------------------|

e------------------------------------------------------------------------|
H---------0---------------1-0---------------------------------1~---------|
F#------3---3-----------3-----3---------1-----1-----0-------1------------|
D-----2-------2p0-----3---------3-----0-----0-----0-------3--------------|
A---0-------------0-0-------------0-3-----2-----3-------3----------------|
E-----------------------------------------------------1------------------|


Repeat chorus 4 times

h = hammer on
p = pull off
Tap to rate this tab
# A B C D E F G H I J K L M N O P Q R S T U V W X Y Z