Song name
# A B C D E F G H I J K L M N O P Q R S T U V W X Y Z

In Love And War - This Lost Town Of Wandering Souls tab

Hello again! This is Chris Kaneck from Photobooth Romance.
This is the song by In Love and War or the band formally known as Stalins War
This is an easy song. Have fun with it.
Enjoy!

Tuning: Drop "D"

INTRO:

Guitar 1
E||---------------------------------------------------------------|
B||---------------------------------------------------------------|
G||---------------------------------------------------------------|
D||---------------------------------------------------------------|Play 2x
A||--5-5-5--12-12-12--7-7-7--8-8-8--3-3-3--7-7-7--10-10-10--8-8-8-|
D||---------------------------------------------------------------|

Guitar 2 (comes in begining of 2nd time playing riff 1)
E||---------------------------------------------------------------|
B||---------------------------------------------------------------|
G||---------------------------------------------------------------|
D||--0------------------------------------------------------------|
A||--0-(hold strum out)---(pick slide at end of 2nd time riff 1)--|
D||--0------------------------------------------------------------|

Guitars 1 & 2
E||------------------------------------------------------------------------|
B||------------------------------------------------------------------------|
G||------------------------------------------------------------------------|
D||------------------------------------------------------------------------|
A||--12-12-12--10-10-10--13-13-13--12-12-12--8-8-8--10-10-10--7-7-7--8-8-8-|
D||------------------------------------------------------------------------|

E||------------------------------------------------------------------------|
B||------------------------------------------------------------------------|
G||------------------------------------------------------------------------|
D||------------------------------------------------------------------------|
A||--12-12-12--10-10-10--13-13-13--12-12-12--8-8-8-8--10-10-10-10-10-10-10-|
D||------------------------------------------------------------------------|



PRE-VERSE

E||---------------------------------------------------------------|
B||---------------------------------------------------------------|
G||---------------------------------------------------------------|
D||-x-x-0-------x-x-0-----x-x-0-----8-8-8-8-8--10-10-10-10-10-----|
A||-x-x-0-------x-x-0-----x-x-0-----8-8-8-8-8--10-10-10-10-10-----|
D||-x-x-0-------x-x-0-----x-x-0-----8-8-8-8-8--10-10-10-10-10-----|

VERSE

E||---------------------------------------------|
B||---------------------------------------------|
G||---------------------------------------------|
D||---------------------------------------------|Play 6x times til PRE-CHORUS
A||----8-7-5------8-7-5------8-7-5------10-8-7--|
D||x-x--------x-x--------x-x--------x-x---------|

PRE-CHORUS

E||-------------------------------------------------|
B||-------------------------------------------------|
G||-------------------------------------------------|
D||--0-x-x-x-x-x-x-x-x---3-x-x-x-x-x-x---6--6-5-0---|Play 2x times
A||--0-x-x-x-x-x-x-x-x---3-x-x-x-x-x-x---6--6-5-0---|
D||--0-x-x-x-x-x-x-x-x---3-x-x-x-x-x-x---6--6-5-0---|

CHORUS

E||------------------------------------------------------------------|
B||------------------------------------------------------------------|
G||------------------------------------------------------------------|
D||--0-0-0-0-0-0-0-0---3-3-3-3-3-3-3-3---10-10-10-10-10-10-10-10-10--|
A||--0-0-0-0-0-0-0-0---3-3-3-3-3-3-3-3---10-10-10-10-10-10-10-10-10--|
D||--0-0-0-0-0-0-0-0---3-3-3-3-3-3-3-3---10-10-10-10-10-10-10-10-10--|

E||--------------------|
B||--------------------|
G||--------------------|
D||--7-7-7-7--8-8-8-8--| Play 4x Times
A||--7-7-7-7--8-8-8-8--|
D||--7-7-7-7--8-8-8-8--|

VERSE

E||---------------------------------------------|
B||---------------------------------------------|
G||---------------------------------------------|
D||---------------------------------------------|Play 6x times til CHORUS
A||----8-7-5------8-7-5------8-7-5------10-8-7--|
D||x-x--------x-x--------x-x--------x-x---------|

CHORUS

E||------------------------------------------------------------------|
B||------------------------------------------------------------------|
G||------------------------------------------------------------------|
D||--0-0-0-0-0-0-0-0---3-3-3-3-3-3-3-3---10-10-10-10-10-10-10-10-10--|Play 4x
A||--0-0-0-0-0-0-0-0---3-3-3-3-3-3-3-3---10-10-10-10-10-10-10-10-10--| Times
D||--0-0-0-0-0-0-0-0---3-3-3-3-3-3-3-3---10-10-10-10-10-10-10-10-10--|

PRE-CHORUS

E||-------------------------------------------------|
B||-------------------------------------------------|
G||-------------------------------------------------|
D||--0-x-x-x-x-x-x-x-x---3-x-x-x-x-x-x---6--6-5-0---|Play 4x times
A||--0-x-x-x-x-x-x-x-x---3-x-x-x-x-x-x---6--6-5-0---|
D||--0-x-x-x-x-x-x-x-x---3-x-x-x-x-x-x---6--6-5-0---|


OUTRO

E||-----------------------|
B||-----------------------|
G||-----------------------|
D||--0-1-0-x-x-x-x-x-x-x--|Repeat til end
A||--0-1-0-x-x-x-x-x-x-x--|
D||--0-1-0-x-x-x-x-x-x-x--|

Thats it. Its a great song.
Check them out at http://www.myspace.com/inloveandwarband
Any regards to the tab e-mail me at xXaxenicXvoxXx@aol.com
Or IM me at kaneck x10
Enjoy!







Tap to rate this tab
# A B C D E F G H I J K L M N O P Q R S T U V W X Y Z