Song name
# A B C D E F G H I J K L M N O P Q R S T U V W X Y Z

In This Moment - Beautiful Tragedy Acoustic tab

-------------------------------------------------------------------------------
	       Beautiful Tragedy - In This Moment
-------------------------------------------------------------------------------
Tabbed by: Musicislife1408
Email:

Tuning: Drop C
Intro Lead	(Repeat each section as many times as needed)
		             Main Melody

D|------------------------------------------------------------------------|
A|---10------------------------12-----------------------------------------|
F|---------13--------------------------13---------------------------------|
C|---------------14--------------------------14---------------------------|
G|------------------------------------------------------------------------|
C|------------------------------------------------------------------------|
			       Rythm
D|--------------------------------------------------------------------|
A|--------------------------------------------------------------------|
F|--7-----------------------------------------------------------------|
C|--7----(8X)------4-----(8X)---------2------(16X)--------------------|
G|--5-------------4-----------------2---------------------------------|
C|---------------- 4----------------  2-------------------------------|
			      Verse
D|----------------------------------------------------------------------|
A|----------------------------------------------------------------------|
F|----------------------------------------------------------------------|
C|---4----------7---------2---------------------------------------------|
G|---4----------7---------2---------------------------------------------|
C|--- 4----------7---------2---------------------------------------- ---|
		           Chorus Lead
D|-------------------------------------------------------------------------|
A|---10------------------------12------------------------------------------|
F|---------13--------------------------13----------------------------------|
C|---------------14--------------------------14----------------------------|
G|-------------------------------------------------------------------------|
C|-------------------------------------------------------------------------|
			   Rhythm
D|--------------------------------------------------------------------|
A|--------------------------------------------------------------------|
F|--7-----------------------------------------------------------------|
C|--7----(8X)------4-----(8X)-------2------(16X)----------------------|
G|--5-------------4---------------2-----------------------------------|
C|----------------4---------------2-----------------------------------|
		  Second Chorus Lead
D|---------------------------------------------------------------------|
A|---10---------------12---------------15-------------14---------------|
F|---------13--------------13---------------18--------------16---------|
C|--------------14--------------14---------------19---------------14---|
G|---------------------------------------------------------------------|
C|---------------------------------------------------------------------|
			    Bridge
			   Rhythm
D|-----------------------------------------------------------------------------|
A|-----------------------------------------------------------------------------|
F|-----------------------------------------------------------------------------|
C|---4------2------0-----2-----------------------------------------------------|
G|---4------2------0-----2-----------------------------------------------------|
C|---4------2------0-----2-----------------------------------------------------|

	Outro Repeat Second Chrous Lead and Rythym


| /  slide up
| \  slide down
| h  hammer-on
| p  pull-off
| ~  vibrato
| +  harmonic
| x  Mute note
===============================================================================
Tap to rate this tab
# A B C D E F G H I J K L M N O P Q R S T U V W X Y Z