Song name
# A B C D E F G H I J K L M N O P Q R S T U V W X Y Z

Ina-ich - Mon Empire tab

Help us improve GuitareTab! Take a short survey!
Ina-Ich : http://www.myspace.com/inaich

Intro (0:00 - 0:13) :

|--------0-----0---------0-3-0-----0-----0-------------0------|
|------1---1-3---3-1-------------1---1-3---3-1-----3-3---0----|
|----2-----------------2-------2-----------------2------------|
|--------------------3-------------------------3--------------|
|-------------------------------------------------------------|
|-------------------------------------------------------------|

1er couplet (0:14 - 0:40) :

|--------0-----0---------0-3-0-----0-----0-------------0------|
|------1---1-3---3-1-0-----------1---1-3---3-1-0---3-3---0----|
|----2-----------------2-------2-----------------2------------|  x2
|-------------------------------------------------------------|
|-------------------------------------------------------------|
|-------------------------------------------------------------|

Refrain (0:40 - 1:00) :

|--------------------0-0-0-0-0-0-0-1-----------------0-0-0--------|
|----1-1-1-1-3-3-3-3-----------------1-1-1-1-3-3-3-3-------3------|
|------------------------------------------------------------2----|
|-----------------------------------------------------------------|
|-----------------------------------------------------------------|
|-----------------------------------------------------------------|


|-------8-12-8-10-12-10-8-------12-15-17--------------------------|
|----10----------------------10-----------------------------------|
|-------------------------10--------------------------------------|
|-----------------------------------------------------------------|
|-----------------------------------------------------------------|
|-----------------------------------------------------------------|

2éme couplet (1:00 - 1:26) :


|--------0-----0---------0-3-0-----0-----0-------------0------|
|------1---1-3---3-1-0-----------1---1-3---3-1-0---3-3---0----|
|----2-----------------2-------2-----------------2------------|  x2
|-------------------------------------------------------------|
|-------------------------------------------------------------|
|-------------------------------------------------------------|

Refrain (1:26 - 1:54) :

|--------------------0-0---0-3-----0---12/-----------------0-0---0-3-----0---12/----|
|----1-1---1-3-3---3-----------3-3---1-----1-1---1-3-3---3-----------3-3---1--------|
|-----------------------------------------------------------------------------------|  x2
|-----------------------------------------------------------------------------------|
|-----------------------------------------------------------------------------------|
|-----------------------------------------------------------------------------------|

(2:00 - 2:14) :

|----13-11-9-8-11-9-8-6-13-11-9-8-6-6-8-13----|
|---------------------------------------------|
|---------------------------------------------|
|---------------------------------------------|
|---------------------------------------------|
|---------------------------------------------|

Reprise du refrain (2:14 - 2:26) :

|----6-6-6-6-6-6-2-1----|
|-----------------------|
|-----------------------|
|-----------------------|
|-----------------------|
|-----------------------|

(2:26 - 3:03)

|--------------------0-0-0-0-0-0-0-1-----------------0-0-0-----12/----|
|----1-1-1-1-3-3-3-3-----------------1-1-1-1-3-3-3-3-------3----------|
|------------------------------------------------------------2--------|
|---------------------------------------------------------------------|
|---------------------------------------------------------------------|
|---------------------------------------------------------------------|

|--------------------0-0---0-3-----0---12/-----------------0-0---0-3-----0---12/----|
|----1-1---1-3-3---3-----------3-3---1-----1-1---1-3-3---3-----------3-3---1--------|
|-----------------------------------------------------------------------------------|
|-----------------------------------------------------------------------------------|
|-----------------------------------------------------------------------------------|
|-----------------------------------------------------------------------------------|


|--------------------0-0---0-3-----0---12/--------------------|
|----1-1---1-3-3---3-----------3-3---1-----1-1---1-3-3---1----|
|-------------------------------------------------------------|
|-------------------------------------------------------------|
|-------------------------------------------------------------|
|-------------------------------------------------------------|


"Riff" de fin (3:03 - 3:15) :

|--------0-----0----------|
|------1---1-3---3-1------|
|----2---------------2----|
|-------------------------|
|-------------------------|
|-------------------------|
Related for Mon Empire tab