Song name
# A B C D E F G H I J K L M N O P Q R S T U V W X Y Z

Inborn - Burn tab

Found some songs by these guys and they sould pretty dope, check em out...

           D
|-----1-------1-----1-|             
|---3---3---3-----3---|
|-2-------2-----2-----|
|---------------------|
|---------------------|
|---------------------| 
           A
|---------------------|
|-----2-------2-----2-|
|---2---2---2-----2---|
|-2-------2-----2-----|
|---------------------|
|---------------------|
           Cm
|---------------------|
|---------------------|
|-----0-------0-----0-|
|---2---2---2-----2---|
|-3-------3-----3-----|
|---------------------|
    Em to Gm
|------------------|
|------------------|
|-----0------------|
|---2------------0-|
|-2------------2---|
|------------3-----|

 D                    A                         Cm                          Em    
i hear the burning calls, they call for me to leave, i try to weight them down, but
   Gm               D
 they take over me...




Tabbed by: unknown
Submitted by: TheMutts
Tap to rate this tab
# A B C D E F G H I J K L M N O P Q R S T U V W X Y Z