Song name
# A B C D E F G H I J K L M N O P Q R S T U V W X Y Z

Inborn - Childish Emotions tab

this is the chorus and intro:

|-------------------------------------|
|-------------------------------------|
|-------------------------------------|
|-------------------------------------|
|-9-9-9-9-9-7-7-7-7-5-5-5-5-5-7-7-7-7-|
|-7-7-7-7-7-5-5-5-5-3-3-3-3-3-5-5-5-5-|



this is the verse riff:

|---------------------------------|
|---------------------------------|
|---------------------------------|
|---------------------------------|
|-9-9-9-9-7-7-7-7-5-5-5-5-5-5-5-5-|
|-7-7-7-7-5-5-5-5-3-3-3-3-3-3-3-3-| x2

|------------------------------------------|
|------------------------------------------|
|------------------------------------------|
|------------------------------------------|
|-9-9-9-9-9-9-7-7-7-7-7-7--9-9-7-7-5-5-5-5-|
|-7-7-7-7-7-7-5-5-5-5-5-5--7-7-5-5-3-3-3-3-|


|---------------------------------|
|---------------------------------|
|---------------------------------|
|---------------------------------|
|-9-9-9-9-7-7-7-7-5-5-5-5-5-5-5-5-|
|-7-7-7-7-5-5-5-5-3-3-3-3-3-3-3-3-|




Tabbed by: unknown
Submitted by: TheMutts
Tap to rate this tab
# A B C D E F G H I J K L M N O P Q R S T U V W X Y Z