Guitaretab - guitar tabs
Song name
# A B C D E F G H I J K L M N O P Q R S T U V W X Y Z

Incantation - Unheavenly Skies tab

Incantation - Unheavenly Skies

C Tuning

Stars indicate harmonics

|-------------------------------|
|-------------------------------|
|-------------------------------|
|-------------------------------|
|--\7--7/-------\5--5/(2)-------|
|---------\5--5----------3---2--|


|------------------------------------|
|------------------------------------|
|------------------------------------|
|--\7--7/-------\5--5/(2)----------2-|
|--\7--7/-\5--5-\5--5/(2)3-----2-3---|
|---------\5--5----------3---2-------|
                             * * * *

|----------------------------------|
|----------------------------------|
|----------------------------------|
|--\7--7/-------\5--5/(2)----------|
|--\7--7/-\5--5-\5--5/(2)3-----3-2-|
|---------\5--5----------3---2-----|
                             * * *

|------------------------------------|
|------------------------------------|
|------------------------------------|
|--\7--7/-------\5--5/(2)----------2-|
|--\7--7/-\5--5-\5--5/(2)3-----2-3---|
|---------\5--5----------3---2-------|
                             * * * *

|----------------------------------|
|----------------------------------|
|----------------------------------|
|--\7--7/-------\5--5/(2)----------|
|--\7--7/-\5--5-\5--5/(2)3-----3-2-|
|---------\5--5----------3---2-----|
                             * * *

|------------------------------------|
|------------------------------------|
|------------------------------------|
|--\7--7/-------\5--5/(2)------------|
|--\7--7/-\5--5-\5--5/(2)3-----3^2-2-|
|---------\5--5----------3---2-------|
                             *     *

|------------------------------------|
|------------------------------------|
|------------------------------------|
|--\7--7/-------\5--5/(2)----------2-|
|--\7--7/-\5--5-\5--5/(2)3-----2-3---|
|---------\5--5----------3---2-------|
                             * * * *

|-----------------------------------|
|-----------------------------------|
|-----------------------------------|
|--\7--7/-------\5--5/(2)-----------|
|--\7--7/-\5--5-\5--5/(2)3-----3-2^-|
|---------\5--5----------3---2------|
                             * * *

|------------------------------------|
|------------------------------------|
|------------------------------------|
|--\7--7/-------\5--5/(2)----------2-|
|--\7--7/-\5--5-\5--5/(2)3-----2-3---|
|---------\5--5----------3---2-------|
                             * * * *


|-----------------------------------------|
|-----------------------------------------|
|-----------------------------------------|
|--\7-7-7-7-7-7/-------\5--5/(2)----------|
|--\7-7-7-7-7-7/-\5--5-\5--5/(2)3---------|
|----------------\5--5----------3---2^^^^-|
      pm-----                     slow vibrato

|---------------------------------------------------|
|---------------------------------------------------|
|---------------------------------------------------|
|--\7-7-7-7-7-7/-------\5--5/(2)--------------2-----|
|--\7-7-7-7-7-7/-\5--5-\5--5/(2)3-----2-3---3----3-3|
|----------------\5--5----------3---2-----2------1-1|
      pm-----
[ Tab from: http://www.guitaretab.com/i/incantation/39779.html ]
Related for Unheavenly Skies tab
Unheavenly Skies chords by Incantation