Song name
# A B C D E F G H I J K L M N O P Q R S T U V W X Y Z

Incubus - Redefine Acoustic tab

This is an incomplete tab, but I am posting it because I couldn't find any tabs at all 
this version of the song. It is in drop D, 1/2 step down

What I've posted should be correct though.. just need the solos, bridge and picking 
some of the verses

-------------------------------------------------------------------------------
			    Redefine Acoustic Remix - Incubus
-------------------------------------------------------------------------------
Tabbed by: Ren Babcock
Email: dell30rb@yahoo.com

Tuning: Drop D, 1/2 step down

Intro:
x2

e|-1010-77-2---------------------------------------------------------------------------|
B|-8-8--77-2---------------------------------------------------------------------------|
G|-9-9--77-2---------------------------------------------------------------------------|
D|-9-9-------000-333-------------------------------------------------------------------|
A|-----------000-333-------------------------------------------------------------------|
D|-----------000-333-------------------------------------------------------------------|

E|--------------------------------------------------------|
B|--------------------------------------------------------|
G|--------------------------------------------------------|
D|--------------------------------------------------------|
A|--------------------------3------------------b3---------|
D|--0h4-0h4-0h4-0h4-0h4-0h4---h4-0h4-b4b4b4b4b4--b4b4-----|

Chorus/Verse

E|---------------------------------------------------|
B|---------------------------------------------------|
G|---------------------------------------------------|
D|---------------------------------------------------|
A|--------------------------3------------------------|
D|--0h4-0h4-0h4-0h4-0h4-0h4---h4-0h4-----------------|


That's all I got... someone finish this!

PS If you like to play/sing with the acoustic, try this for the verse
   picture the scene......blink of an eye...manifest...illustrated
E|-----------------------------------------------------------------|
B|-----------------------------------------------------------------|
G|-----------------------------------------------------------------|
D|-4-4-4-4-4-4-4-4-4-4-4-4-/-7-7-7-7-7-7-7-7-9-9-9-7-7-7-7-7-7-7-7-|
A|-5-5-5-5-5-5-5-5-5-5-5-5-/-8-8-8-8-8-8-8-8-8-8-8-8-8-8-8-8-8-8-8-|
D|-----------------------------------------------------------------|

then go back to this for the chorus

E|---------------------------------------------------|
B|---------------------------------------------------|
G|---------------------------------------------------|
D|---------------------------------------------------|
A|--------------------------3------------------------|
D|--0h4-0h4-0h4-0h4-0h4-0h4---h4-0h4-----------------|


| /  slide up
| \  slide down
| h  hammer-on
| p  pull-off
| ~  vibrato
| +  harmonic
| x  Mute note
===============================================================================
Tap to rate this tab
# A B C D E F G H I J K L M N O P Q R S T U V W X Y Z