Song name
# A B C D E F G H I J K L M N O P Q R S T U V W X Y Z

Incubus - Echo tab

-------------------------------------------------------------------------------
			     Echo - Incubus (Morning View)
-------------------------------------------------------------------------------
Tabbed by:UG's_Pagan, Conor Gober
Email:


Tuning:DADGBE
This song is really hard to play correctly.  It's done origionally on a PRS with
light guage strings. (PRS's have superfast actions) It incorporates four or Eitzinger's
signature moves:  Incredibly fast chord sliding, Precise chord bending, An oriental
Pentatonic sound and a signature mild overdrive with a warm tone (tone nob turned down)

The bends in this song have to be done perfectly, it took me months to get it right,
but when you do, it sounds awsome.

Main riff


E|------0~-------------------------------------0~-----------------------------|(0)-(0)
B|------0~-------------------------------------0~-----------------------------|(0)-(0)
G|------2--2/4--4/7---7/9---9/11\9--\7---------4~--4/7--7\4--4--4^4\2--2------|(2)
D|------2--2/4--4/7---7/9---9/11\9--\7-------4~----4/7--7\4--4--4^4\2--2------|(2)
A|----0~---0h2--2/5---5/7---7/9-\7--\5--0h2~-------2/5--5\2--2--2^2\0--0------|(0)
D|--0~------------------------------------------------------------------------|

(Parenthated notes only played at end of 4th time)

Verse

e|---------0~--------0~-------------0~--------------|
B|---------0~--------0~---------------0~-------0~---|
G|---------2~--------2~--/4--------------4~---------|
D|-------2~--------2~----/4---4~------------4~------|
A|----0~--------0~------0h2~------------------------|
D|--0~--------0~------------------------------------|
(play once)


e|------------0~---------------------0~------------------0~--------------|
B|--------------0~---------------------0~------------------0~-------0~---|
G|--------7~------7~-------------7~------7~-----------4~------4~---------|
D|------7~----------7~--------7~-----------7~-------4~-----------4~------|
A|-/5~--------------------5~--------------------0h2~---------------------|(0)
D|-----------------------------------------------------------------------|
(play as needed, parenthated note is transition to chorus)


Chorus
e|-----------------------------------------------------------------------|
B|----------7~----------7~-----------5~-------------5~-------------------|
G|-----------------------------------------------------------------------|
D|------5~----------5~-----------3~----------3~---3~--3~-----------------|
A|----5~----------5~----------3~-----------3~----3~----3~----------------|
D|--5~----------5~----------3~-----------3~-----3~-------3/5-------------|repeat here


Solo  (B minor pentatonic)

(palm muted, lots of reverb, overdrive, low tone, use subtle finger vibrato)
e|---19------------------------------------------------------------------|
B|------22-19------------------------------------------------------------|
G|------------21f^21-19---------------------------------------19-21-19v~-|
D|----------------------21--19--21v~--------------------19-21------------|
A|-----------------------------------19-21-19v~---19-21------------------|
D|-----------------------------------------------------------------------|

e|------------------------19--------------------------------------------|
B|---------------19v~--------22--19-------------------------------------|
G|--19-21-19-21----------------------21f^21--19-------------------------|
D|-----------------------------------------------21--19v~---------------|
A|----------------------------------------------------------------------|
D|----------------------------------------------------------------------|


Outro  (easy)
e|------------0~-------------------------------------------------------------|
B|----------0~--0~-----------------------------------------------------------|
G|--------2~------2~---------------------------------------------------------|
D|------2~----------2~-------------------------------------------------------|
A|----0~--------------0~-----------------------------------------------------|
D|--0~------------------0~---------------------------------------------------|
(Lather rinse repeat)


There you go, hope you guys like it, I think it sounds close egnough
Tap to rate this tab
# A B C D E F G H I J K L M N O P Q R S T U V W X Y Z