Song name
# A B C D E F G H I J K L M N O P Q R S T U V W X Y Z

Incubus - Medium tab

------------------------------------------------
MEDIUM - Incubus
------------------------------------------------
Tabbed by: incunity
Email: mmincubus@comcast.net

Tuning:

INTRO
e|-9--9--x-9--x-9--x-9--12-9--12-9-------------|
B|-11-11-x-11-x-11-x-11-11-11-11-11------------|
G|-12-12-x-12-x-12-x-12-12-12-12-12------------|
D|---------------------------------------------|
A|---------------------------------------------|
E|---------------------------------------------|


RIFF A (could be played w/o the G string)
e|---------------------------------------------|
B|---------------------------------------------|
G|-11------11------11------11------------------|
D|-10---8--10---8--10---8--10---8--------------|
A|-9----7--9----7--9----7--9----7--------------|
E|---------------------------------------------|

RIFF B
e:-------------------------|
B:-------------------------|
G:-------------------------|
D:-5-5--5--5--5-8--5--8--5-|
A:-5-5--5--5--5-8--5--8--5-|
E:-3-3--3--3--3-6--3--6--3-|


RIFF C
e:-------------------------|
B:-------------------------|
G:-------------------------|
D:------5-------88-55-88-5-|
A:----5----5----88-55-88-5-|
E:-3----------3-66-33-66-3-|



| /  slide up
| \  slide down
| h  hammer-on
| p  pull-off
| ~  vibrato
| +  harmonic
| x  Mute note
Tap to rate this tab
# A B C D E F G H I J K L M N O P Q R S T U V W X Y Z