Song name
# A B C D E F G H I J K L M N O P Q R S T U V W X Y Z

Incubus - Like A Virgin tab

This song is off of Incubus' MTV unplugged sessions. Its a cover of Madonna's famous hit. PLZ RATE thanks


e|-------------------------------------------------------|
b|-------------------------------------------------------|
g|-------------------------------------------------------|
d|PATTERN A------------||-PATTERN B----------------------|
a|0--------0-0---------||----2--------2-2----------------|
E|---2--0-------2--0--2||-------5--2-------5--2--5-------|

PRE CHORUS
e|-------2-2-2--------2-2-2------------------------------|
b|-------3-3-3--------2-2-2------------------------------|
g|-------4-4-4--------2-2-2--X2--1-----------------------|
d|----4---------------4-4-4------2 several times---------|
a|-2---------------4-------------2-----------------------|
E|--------------2----------------0-----------------------|





PATTERN A  8 Times
PATTERN B  2 Times
PATTERN A  6 TIMES
PRE CHORUS 1 TIMES
PATTERN A  4 TIMES
PATTERN B  2 TIMES
PATTERN A  6 TIMES
PATTERn B  2 TIMES
PATTERN A  2 TIMES
Tap to rate this tab
# A B C D E F G H I J K L M N O P Q R S T U V W X Y Z