Song name
# A B C D E F G H I J K L M N O P Q R S T U V W X Y Z

Incubus - Follow tab

|-----5---------|
|---------------|
|---2-----------|  Repeat for about 20 times or so.
|---------------|
|-0-------------|
|---------------|

|-0---------|
|-1---------|
|-2---------| Repeat 3 times.
|-----------|
|-----------|
|-----------|


|---------------------------------------|
|----------------------------8----------|
|--------7------10-9--7-9-10-10-9-7-----|
|-7-9-10--10-9-7------------------------|
|---------------------------------------|
|---------------------------------------|

|------------------------------------------------|
|----------------------------9-------10-9--------|
|--------7-------10-9--7-9-10-10-9-7-----10-9----|
|-7-9-10--10-9-7---------------------------------|
|------------------------------------------------|
|------------------------------------------------|

|-0-1-0-0-0-----|
|-1-1-1-0-0-----|
|-2-2-2-2-1-----| Play each chord a bunch of times here.
|---------------|
|---------------|
|---------------|

Heavy distortion on this part;

|---------------------------------------|
|---------------------------------------|
|---------------------------------------|
|---------------------------------------|
|---------------------------------------|
|-5-5-5-5-5-5-5-5-5--8-8-8-8-8-8-8-8-8--|

|------------------------------------------|
|------------------------------------------|
|------------------------------------------|
|------------------------------------------|
|------------------------------------------|
|-5-5-5-5-5-5-5-5-5--1-1-1-1-1--0-0-0-0-0--|

That's pretty much it, I believe.
Tap to rate this tab
# A B C D E F G H I J K L M N O P Q R S T U V W X Y Z