Song name
# A B C D E F G H I J K L M N O P Q R S T U V W X Y Z

Incubus - Golden tab

-------------------------------------------------------------------------------
			     GOLDEN - Incubus
-------------------------------------------------------------------------------
Tabbed by: Jordan Greczkowski
Email: jgsox33@sbcglobal.net

Tuning: Standard

This song is from the bonus CD included with their new
Documentary, Look Alive.

Messed up a little the first time, this is now 100% accurate.
This riff is repeated throughout the whole song.
e|----------1p0-----0----------------------------12------------10----------|
B|------2-------2-----2------10------10-----10------10----10------10---10--|
G|--------2---------------------9------------------------------------------|
D|----2-----------------2/10------10---------------------------------------|
A|--0-------------------------------------9----9--------8----8-------8-----|
E|-------------------------------------------------------------------------|

Sometimes it will be played with a few minor note changes.  
The last 12 on the e string in that riff will sometimes be 8 instead.

Then after a while, this acoustic part is played several times.
e|------000------000--|
B|------222------222--|
G|--2-2-222--2-2-222--|
D|--2-2-222--2-2-222--|
A|--0-0-000--0-0-000--|
E|--------------------|
Tap to rate this tab
# A B C D E F G H I J K L M N O P Q R S T U V W X Y Z