Song name
# A B C D E F G H I J K L M N O P Q R S T U V W X Y Z

Incubus - Punch Drunk tab

Punch Drunk Tab
By Jeffrey Milnazik

If you see something terribly wrong, or anything that could be fixed up,
please post it in the comments section so others can see it and play
it right. All feedback appreciated. Thanks.

Intro -

e ----------------------------------------|
B ----------------------------------------|
G ----------6-6-6-6-7-6-6-7-6-------------|
D -----5----5-5-5-5---5-5---5-------------|
A -5/7---7--7-7-7-7---7-7---7-------------|
E ----------------------------------------|

e ----------------------------------------|
B ----------------------------------------|
G ---------0-0-0-0-2-0-0-2-0--------------|
D ---------5-5-5-5---5-5---5--------------|
A -----4---4-4-4-4---4-4---4--------------|
E -3/5---5-5-5-5-5---5-5---5--------------|

Verse -

Repeat Intro riff.

Pre-Chorus -

There is a riff going on but at the moment I can't figure it out. If I do
stumble across the notes, I will post them. These are the chords:

   F   D   F   D
e -1-------1------------------------------|
B -1---7---1---7--------------------------|
G -2---7---2---7--------------------------|
D -3---7---3---7--------------------------|
A -3---5---3---5--------------------------|
E -1-------1------------------------------|

Chorus -

These chords can be played wherever; however I like them in these positions:

   Em  A   C   A
e -0---5-------5--------------------------|
B -0---5---5---5--------------------------|
G -0---6---5---6--------------------------|
D -2---7---5---7--------------------------|
A -2---7---3---7--------------------------|
E -0---5-------5--------------------------|

Verse 2 -

The beginning is a bit different. It starts off with the intro/verse riff,
then turns into another one. Here is the riff:

e -----------------------------------------|
B -----------------------------------------|
G -----------------------------------------|
D -----------5------------------5----------|
A -5/7---5-7---7--5-7-5-----4-5---4--4-5-4-|
E ----------------------5------------------|

After that is played twice, it goes back into the normal verse chords.

Pre-Chorus -

Repeat previous Pre-Chorus.

Chorus -

Repeat previous Chorus x 2.

Solo Part -

A bit difficult to tab... sounds about right though.

e --------------------------------------------------|
B --------------------------------------------------|
G --------------------------------------------------|
D ----------------5---------------------------------|
A -7-5-7-5-7--5-7---7--5-7-5-------------7----------|
E ---------------------------9--7-9--7-9---9--7-9-7-|

e -----------------------------------------------|
B -----------------------------------------------|
G -----------------------------------------------|
D -------------5----------------------------5b---|
A -7--5-7--5-7---7--5-7-5-------------7---7------|
E ------------------------9--7-9--7-9---9--------|

e -----------------------------------------------|
B -----------------------------------------------|
G -----------------------------------------------|
D ------5b-------5b------------------5b-5b-------|
A -5-7------5-7--------------------7-------------|
E -------------------7-9--7-9--7-9---------------|

e ------------------------------------------------|
B ------------------------------------------------|
G ------------------------------------------------|
D ------5b-----5b-----5b-----5b-----5/7-7/9-9b-9--|b*   *bend higher.
A --5-7----5-7----5-7----5-7----5-7---------------|
E ------------------------------------------------|


Verse -

Repeat Verse riff, minus hammer-on notes.

Pre-Chorus -

Repeat Pre-Chorus x2.

Chorus -

Repeat Chorus.

Solo Part 2 -

Tremolo Pick.

e ----------------------------------------|
B --12--10-12--10-12-15--12--10-12-10-----|   x4
G ----------------------------------------|
D ----------------------------------------|
A ----------------------------------------|
E ----------------------------------------|

e --12--10-12--10-12-15--12---------------|   x4
B ----------------------------------------|
G ----------------------------------------|
D ----------------------------------------|
A ----------------------------------------|
E ----------------------------------------|

End on E minor.
Tap to rate this tab
# A B C D E F G H I J K L M N O P Q R S T U V W X Y Z