Song name
# A B C D E F G H I J K L M N O P Q R S T U V W X Y Z

Incubus - Naked tab

  The tuning is Drop D
First tab.. Criticism wil be accepted
   Enjoy!

Intro
e|------------------------------------------------------------------------|
B|------------------------------------------------------------------------|
G|------------------------------------------------------------------------|
D|------------------------------------------------------------------------|
A|------------------------------------------------------------------------|
D|-1~-1-1-1-2-2-2-2-3-3-3-4-4-4-5~-5-5-5-4-4-4-4-3-3-3-2-2-2-0------------|

e|------------------------------------------------------------------------|
B|------------------------------------------------------------------------|
G|------------------------------------------------------------------------|
D|--------------------------------4-4-4-7-7-7-7-3-3-3-6-6-6-6-6-----------|
A|--------------------------------4-4-4-7-7-7-7-3-3-3-6-6-6-6-6-----------|
D|-1-1-1-1-2-2-2-2-3-3-3-4-4-4-5~-4-4-4-7-7-7-7-3-3-3-6-6-6-6-6-----------|

e|------------------------------------------------------------------------|
B|------------------------------------------------------------------------|
G|------------------------------------------------------------------------|
D|-1-1-1-1-2-2-2-2-3-3-3-4-4-4-5--5-5-5-4-4-4-4-3-3-3-2-2-2-0-------------|
A|-1-1-1-1-2-2-2-2-3-3-3-4-4-4-5--5-5-5-4-4-4-4-3-3-3-2-2-2-0-------------|
D|-1-1-1-1-2-2-2-2-3-3-3-4-4-4-5~-5-5-5-4-4-4-4-3-3-3-2-2-2-0-------------|

e|------------------------------------------------------------------------|
B|------------------------------------------------------------------------|
G|------------------------------------------------------------------------|
D|-1-1-1-1-2-2-2-2-3-3-3-4-4-4-5--4-4-4-7-7-7-7-3-3-3-6-6-6-6-6-0---------|
A|-1-1-1-1-2-2-2-2-3-3-3-4-4-4-5--4-4-4-7-7-7-7-3-3-3-6-6-6-6-6-0---------|
D|-1-1-1-1-2-2-2-2-3-3-3-4-4-4-5~-4-4-4-7-7-7-7-3-3-3-6-6-6-6-6-0---------|

Verse
e|------------------------------------------------------------------------|
B|------------------------------------------------------------------------|
G|------------------------------------------------------------------------|
D|-3-2-0-----0-00---------------------------------------------------------|
A|-3-2-0-0h1-0-00---------------------------------------------------------|
D|-3p2p0-----0-00---------------------------------------------------------|

Repeat x8

Chorus
e|-------------------------------------------------------------------------|
B|-------------------------------------------------------------------------|
G|-------------------------------------------------------------------------|
D|-5-5-5-8--5-5-5-8--5-5-5-8--5-5-5-8--7-7-7-10-7-7-7-10-7-7-7-10-7-7-7-10-|
A|-3-3-3-6--3-3-3-6--3-3-3-6--3-3-3-6--5-5-5-8--5-5-5-8--5-5-5-8--5-5-5-8--|
D|-------------------------------------------------------------------------|

Verse
e|------------------------------------------------------------------------|
B|------------------------------------------------------------------------|
G|------------------------------------------------------------------------|
D|-3-2-0-----0-00---------------------------------------------------------|
A|-3-2-0-0h1-0-00---------------------------------------------------------|
D|-3p2p0-----0-00---------------------------------------------------------|

Repeat x8

Chorus
e|-------------------------------------------------------------------------|
B|-------------------------------------------------------------------------|
G|-------------------------------------------------------------------------|
D|-5-5-5-8--5-5-5-8--5-5-5-8--5-5-5-8--7-7-7-10-7-7-7-10-7-7-7-10-7-7-7-10-|
A|-3-3-3-6--3-3-3-6--3-3-3-6--3-3-3-6--5-5-5-8--5-5-5-8--5-5-5-8--5-5-5-8--|
D|-------------------------------------------------------------------------|

Repeat x2

e|------------------------------------------------------------------------|
B|------------------------------------------------------------------------|
G|------------------------------------------------------------------------|
D|--------------------------------4-4-4-7-7-7-7-3-3-3-6-6-6-6-6-----------|
A|--------------------------------4-4-4-7-7-7-7-3-3-3-6-6-6-6-6-----------|
D|-1-1-1-1-2-2-2-2-3-3-3-4-4-4-5~-4-4-4-7-7-7-7-3-3-3-6-6-6-6-6-----------|

e|------------------------------------------------------------------------|
B|------------------------------------------------------------------------|
G|------------------------------------------------------------------------|
D|-1-1-1-1-2-2-2-2-3-3-3-4-4-4-5--5-5-5-4-4-4-4-3-3-3-2-2-2-0-------------|
A|-1-1-1-1-2-2-2-2-3-3-3-4-4-4-5--5-5-5-4-4-4-4-3-3-3-2-2-2-0-------------|
D|-1-1-1-1-2-2-2-2-3-3-3-4-4-4-5~-5-5-5-4-4-4-4-3-3-3-2-2-2-0-------------|

e|------------------------------------------------------------------------|
B|------------------------------------------------------------------------|
G|------------------------------------------------------------------------|
D|-1-1-1-1-2-2-2-2-3-3-3-4-4-4-5--4-4-4-7-7-7-7-3-3-3-6-6-6-6-6-0---------|
A|-1-1-1-1-2-2-2-2-3-3-3-4-4-4-5--4-4-4-7-7-7-7-3-3-3-6-6-6-6-6-0---------|
D|-1-1-1-1-2-2-2-2-3-3-3-4-4-4-5~-4-4-4-7-7-7-7-3-3-3-6-6-6-6-6-0---------|

e|------------------------------------------------------------------------|
B|------------------------------------------------------------------------|
G|------------------------------------------------------------------------|
D|-1-1-1-1-2-2-2-2-3-3-3-4-4-4-5--5-5-5-4-4-4-4-3-3-3-2-2-2-0-------------|
A|-1-1-1-1-2-2-2-2-3-3-3-4-4-4-5--5-5-5-4-4-4-4-3-3-3-2-2-2-0-------------|
D|-1-1-1-1-2-2-2-2-3-3-3-4-4-4-5~-5-5-5-4-4-4-4-3-3-3-2-2-2-0-------------|

e|------------------------------------------------------------------------|
B|------------------------------------------------------------------------|
G|------------------------------------------------------------------------|
D|-1-1-1-1-2-2-2-2-3-3-3-4-4-4-5--4-4-4-7-7-7-7-3-3-3-6-6-6-6-6-0---------|
A|-1-1-1-1-2-2-2-2-3-3-3-4-4-4-5--4-4-4-7-7-7-7-3-3-3-6-6-6-6-6-0---------|
D|-1-1-1-1-2-2-2-2-3-3-3-4-4-4-5~-4-4-4-7-7-7-7-3-3-3-6-6-6-6-6-0---------|

 And that's it.. Pretty simple really..
Tap to rate this tab
# A B C D E F G H I J K L M N O P Q R S T U V W X Y Z