Guitaretab - guitar tabs
Song name
# A B C D E F G H I J K L M N O P Q R S T U V W X Y Z

Incubus - Black Heart Inertia tab

---------------------------------------------------------------------
			     BLACK HEART INERTIA - Incubus
---------------------------------------------------------------------
Tabbed by: Mike Hamilton
Email: mikehmbn@gmail.com
www.myspace.com/hamboneonguitar
It's my first tab, cut me some slack....

Tuning: standard - eadgbe

(A) Intro, 4 times
e|-----------------------------------------------------------------|
B|-----------------------------------------------------------------|
G|-----------------------------------------------------------------|
D|-----------------------------------------------------------------|
A|-------3-----5----3----------------------------------------------|
E|----1---1/3---1--1-1/3-5-3---------------------------------------|

(B) Played once before the verse
e|-----------------------------------------------------------------|
B|-----------------------------------------------------------------|
G|--7777--5-55555--------------------------------------------------|
D|--7575--3-55555--------------------------------------------------|
A|--5555--3-33333--------------------------------------------------|
E|-----------------------------------------------------------------|

(C) Verse, 4 times.
Walking alone tonight
ĎCause Iíve only got room for two
Me and my burdened black heart
Itís all we know how to do
e|-----------------------------------------------------------------|
B|-----------------------------------------------------------------|
G|--7777xx5555555xx------------------------------------------------|
D|--7575xx3555555xx------------------------------------------------|
A|--5555xx3333333xx------------------------------------------------|
E|-----------------------------------------------------------------|
[ Tab from: http://www.guitaretab.com/i/incubus/184041.html ]
(B) 4 times,
Yet I look for a bigger bang
Than the kind I continually see
Sick of all this inertia ow
Wonít you mend me?

(A) 4 times,
Lover, can you help me?
Iím a child lost in the woods
A black heart pollutes me
And I think

(B) 2 times,
Youíre a mountain that Iíd like to climb


(D) 
e|-----5-5-555----1-111----------------------------------------------|
B|-----5-5-555----1-111----------------------------------------------|
G|-----6-6-666----2-222----------------------------------------------|
D|-----7-7-777----3-333----------------------------------------------|
A|-----7-7-777----3-333----------------------------------------------|
E|-----5-5-555----1-111----------------------------------------------|

(B) 2 times, (D)
Not to conquer, but to share in the view

(C) 4 times.
Pulled by a false inertia
Pushed out by circumstance
Pistol firing at my feet
Thatís coercing me to dance

(C) 4 times.
Yet I look for a bigger bang
Than the kind Iím sorry to know.
Here I am, first foot of the climb
Watch me go.

(A) 4 times,
Lover, can you help me?
Iím a child lost in the woods
A black heart pollutes me
And I think

(B) 2 times, (D)
Youíre a mountain that Iíd like to climb

(B) 2 times, (D)
Not to conquer, but to share in the view

(B) 2 times, (D)
Youíre a bonfire and Iím gathered íround you

(B) 2 times, (D)
Set this old black heart inertia aflame

Miscellaneous soloing and stuff I'll try to tab later....

(B) 2 times, (D)
Youíre a mountain that Iíd like to climb

(B) 2 times, (D)
Not to conquer, but to share in the view

(B) 2 times, (D)
Youíre a bonfire and Iím gathered íround you

(B) 2 times, (D)
Set this old black heart inertia aflame

Still kinda unsure about the ending.....help me out....

| /  slide up
| \  slide down
| h  hammer-on
| p  pull-off
| ~  vibrato
| +  harmonic
| x  Mute note
=======================================================================
Related for Black Heart Inertia tab