Song name
# A B C D E F G H I J K L M N O P Q R S T U V W X Y Z

Incubus - While All The Vultures Feed tab

Intro, Chorus, and solo (w/ wah pedal)

-------10tr-9tr-|
----------------|
----------------|x4
----------------|
----------------|


Verse

---------------7---------------10--------|
---------10--10-10-10--------------------|
-------------------------7---7---7-7-7---|
-----9--9--------------------------------|
-7--7------------------s7---7------------|
-----------------------------------------|

---------------7---------------------------|
---------10--10-10-10----------8~-8-8s10s8-|
-------------------------7---7-------------|
-----9--9----------------------------------|
-7--7------------------s7---7--------------|
-------------------------------------------|


whoa    o    o    o o
----   --- ---- -------|
----   --- ---- -------|
-7--   -9- -12- -14s12-|
-7--   -9- -12- -14s12-|
-5--   -7- -10- -12s10-|
----   --- ---- -------|
Tap to rate this tab
# A B C D E F G H I J K L M N O P Q R S T U V W X Y Z