Song name
# A B C D E F G H I J K L M N O P Q R S T U V W X Y Z

Incubus - Midnight Swim tab

Artist: Incubus
Title: Midnight Swim
Album: Monuments and Melodies
Tuning: D tuned

Intro:

e----------------------------|
B----------------------------|
G----------------------------|   X4    (you can use a phaser to make the
D----------------------------|          effects that are in the back)
A----------------------------|
D---5------7--9--3-----------|
         A midnight swim...
         Is what I'm needing..

Chorus:

e-------------------------------------------|
B-------------------------------------------|
G-------------------------------------------|   X4  Turn on the distortion
D---5555---55--77--99--3333-3333-3333-3333--|
A---5555---55--77--99--3333-3333-3333-3333--|
D---5555---55--77--99--3333-3333-3333-3333--|
          I take  to   the deep..
        Where the lights been til now, safe..

Verse:

e-------------------------------------|
B-------------------------------------|
G-------------------------------------|   X4      Leave distortion on
D-------------------------------------|            (lightly palm mute)
A-------------------------------------|
D---5555---55---77--99--3333--3333----|
           So  into    blue...
           Begin  an   ark...

Chorus:

e---------------------------------------------|
B---------------------------------------------|
G---------------------------------------------|   X4
D---5555---55--77--99--3333-3333-3333-3333-xx-|
A---5555---55--77--99--3333-3333-3333-3333-xx-|
D---5555---55--77--99--3333-3333-3333-3333-xx-|
          I take  to   the deep..
        Where the lights been til now, safe..

Bridge:

e-------------------------------------------|
B-------------------------------------------|
G-------------------------------------------|   X 3
D---7777--77--77--7777--3--5--7--9--10--12--|
A---7777--77--77--7777--3--5--7--9--10--12--|
D---7777--77--77--7777--3--5--7--9--10--12--|
  Naa aahh oohhh...     now now whoooaa ho
  whoa oooohhhhh...     now no nooooo

e---------------------------------------|
B---------------------------------------|
G---------------------------------------|   On the 4th measure play this
D---7777--77--77--7777--5--5--5--5--xx--|
A---7777--77--77--7777--5--5--5--5--xx--|
D---7777--77--77--7777--5--5--5--5--xx--|

Verse:

e-------------------------------------|
B-------------------------------------|
G-------------------------------------|   X3      Leave distortion on
D-------------------------------------|           palm muted
A-------------------------------------|
D---5555---55---77--99--3333--3333----|
     ^     Water  and   salt...
 1st time  Secrets like new....
 dont PM.

e---------------------------|
B---------------------------|
G---------------------------|   On the 4th measure play this
D---------------------------|
A---------------------------|
D---5555---55--77--99--3----|
           A midnight swim...

This break down im still trying to figure out so if someone knows it post it up!

Outro:

e-------------------------------------------|
B-------------------------------------------|
G-------------------------------------------|   X 3
D---7777--77--77--7777--3--5--7--9--10--12--|
A---7777--77--77--7777--3--5--7--9--10--12--|
D---7777--77--77--7777--3--5--7--9--10--12--|
  Naa aahh oohhh...     now now whoooaa ho
  whoa oooohhhhh...     now no nooooo

e---------------------------------------|
B---------------------------------------|
G---------------------------------------|   On the 4th measure play this
D---7777--77--77--7777--5--5--5--5--xx--|
A---7777--77--77--7777--5--5--5--5--xx--|
D---7777--77--77--7777--5--5--5--5--xx--|

Theres also a guitar solo thats being played during this but i havent figured it out and 
my first tab so if anyone wants to finish it up, feel free to. My e-mail is 
so e-mail me if you have any questions.
Tap to rate this tab
# A B C D E F G H I J K L M N O P Q R S T U V W X Y Z