Song name
# A B C D E F G H I J K L M N O P Q R S T U V W X Y Z

Incubus - Stellar tab

Help us improve GuitareTab! Take a short survey!
This song is tha shit :)

VERSE / MAIN RIFF

e------------------------------------------------------|
B------------------------------------------------------|
G-----9-/--11--11-\--6--6---------------------/--9-----|
D---9---/--11--11-\--6--6------6-6----6--7-7--/--9-----|
A-0-------------------------4-------7------------------|
E------------------------------------------------------|

repeat...

PRE CHORUS	      CHORUS

e------|--------|--------------------------------------|
B------|--------|--------------------------------------|
G---7--|--------|----------------6-6-------------------|
D---7--|---9----|----7-7-x-7-7---6-6--6-6-----6--7-----|
A---5--|---9----|----7-7-x-7-7---4-4--6-6-----6--7-----|
E------|---7----|----5-5-x-5-5--------4-4--0--4--5-----|


BIT AFTER x2

e------------------------------------------------------|
B------------------------------------------------------|
G------9-/--11--11-------9-\--6--6---------------------|
D----9---/--11--11-----9---\--6--6---------------------|
A--0-----------------0---------------------------------|
E------------------------------------------------------|

INTERLUDE x2

e-------------------------------------------------------------------------|
B-------------------------------------------------------------------------|
G-------------------------------------------------------------------------|
D------0-0-------0-0-------0-0------0--0------2-2-------2-2-------0--0----|
A----7-----7---7-----7---5-----5---5---5----2-----2---2-----2---5----5----|
E--5---------5---------3---------3-----3--0---------0---------3------3----|

Any questions etc email me :)
jak3@positive-thinking.com
Related for Stellar tab