Song name
# A B C D E F G H I J K L M N O P Q R S T U V W X Y Z

Incubus - Just A Phase tab

Just a Phase
Incubus
Morning View
Tabbed by: Ryan Heisler


Intro:

e|---------------------------------|-------0--| - Listen to the song for the
B|---------------------------------|-------0--|   rhythm of the last chord
G|---------------6---4-------0-----|-------11-|
D|-------0-5-5-0---7---5-------0---|-----0-0--|   x4
A|---0-4-----------------5h7-----0-|---9---9--|
E|-0-------------------------------|-7-----7--|

e|-0-|-0--|-0-|
B|-0-|-0--|-0-|
G|-9-|-11-|-9-| - On the last chord, listen to the song and make sure
D|-7-|-0--|-7-|   you get the up and down strokes on the right beats.
A|-7-|-9--|-7-|
E|-0-|-7--|-0-|

e|---------------------------------|-------0--|
B|---------------------------------|-------0--|
G|---------------6---4-------0-----|-------11-|
D|-------0-5-5-0---7---5-------0---|-----0-0--|   x4
A|---0-4-----------------5h7-----0-|---9---9--|
E|-0-------------------------------|-7-----7--|

e|-0-|-0--|-0-|-3-|-2-|
B|-0-|-0--|-0-|-3-|-2-|
G|-9-|-11-|-9-|-4-|-3-|
D|-7-|-0--|-7-|-5-|-4-|
A|-7-|-9--|-7-|-5-|-4-|
E|-0-|-7--|-0-|-3-|-2-|


Verse Intro:

e|-------0-----|-------------|-------0-----|-------------|
B|-------0-----|-------------|-------0-----|-----5-------|
G|-------6-----|-------0-----|-------6-----|-----6-------|   x2
D|-----6---6---|-----4---4---|-----6---6---|---6---6-----|
A|---7-------7-|---5-------5-|---7-------7-|-4---------6-|
E|-0-----------|-3-----------|-0-----------|---------4---|


Verse:

e|-------0-----|-------------|-------0-----|--------------| }
B|-------0-----|-------------|-------0-----|------5-------| }
G|-------6-----|-------0-----|-------6-----|-----6--------| }
D|-----6---6---|-----4---4---|-----6---6---|----6---6-----| }
A|---7-------7-|---5-------5-|---7-------7-|-4-4--------6-| }
E|-0-----------|-3-----------|-0-----------|----------4---| }
                                                            }  x3
e|-------0-----|-------------|-------0-----|-------------| -- }
B|-------0-----|-------------|-------0-----|-----5-------| -- }
G|-------6-----|-------0-----|-------6-----|-----6-------| -- }
D|-----6---6---|-----4---4---|-----6---6---|---6---6--------- }  ]
A|---7-------7-|---5-------5-|---7-------7-|-4---------6-| -- }
E|-0-----------|-3-----------|-0-----------|---------4---| -- }


Pre-Chorus:
                                            PM
e|---------------------|  |---------------------|
B|---------------------|  |---------------------|
G|-------0-------------|x3|-------0---------5-5-|
D|-----6---6-----------|  |-----6---6-------5-5-|
A|---4-------4---4---4-|  |---4-------4---4-3-3-|
E|-5-----------5---4---|  |-5-----------5-------|


Chorus:
  PM
e|--------------------------------------|
B|--------------------------------------|
G|-5-5-5--------------------------------|  x3
D|-5-5-5-6-6-6-2-2-7-7-7-7~77--5-5-5~55-|
A|-3-3-3-6-6-6-2-2-7-7-7-7~77--5-5-5~55-|
E|-------4-4-4-0-0-5-5-5-5~55--3-3-3~33-|

   Fourth Time:
  e|---------------------------------|
  B|---------------------------------|
  G|-5-5-5---------------------------|
  D|-5-5-5-6-6-6-2-2-7-7-7-7~77--5-5-|
  A|-3-3-3-6-6-6-2-2-7-7-7-7~77--5-5-|
  E|-------4-4-4-0-0-5-5-5-5~55--3-3-|


Verse:

e|-------0-----|-------------|-------0-----|--------------| }
B|-------0-----|-------------|-------0-----|------5-------| }
G|-------6-----|-------0-----|-------6-----|-----6--------| }
D|-----6---6---|-----4---4---|-----6---6---|----6---6-----| }
A|---7-------7-|---5-------5-|---7-------7-|-4-4--------6-| }
E|-0-----------|-3-----------|-0-----------|----------4---| }
                                                            }  x3
e|-------0-----|-------------|-------0-----|-------------| -- }
B|-------0-----|-------------|-------0-----|-----5-------| -- }
G|-------6-----|-------0-----|-------6-----|-----6-------| -- }
D|-----6---6---|-----4---4---|-----6---6---|---6---6--------- }  ]
A|---7-------7-|---5-------5-|---7-------7-|-4---------6-| -- }
E|-0-----------|-3-----------|-0-----------|---------4---| -- }


Pre-Chorus:
                                            PM
e|---------------------|  |---------------------|
B|---------------------|  |---------------------|
G|-------0-------------|x3|-------0---------5-5-|
D|-----6---6-----------|  |-----6---6-------5-5-|
A|---4-------4---4---4-|  |---4-------4---4-3-3-|
E|-5-----------5---4---|  |-5-----------5-------|


Chorus:
  PM
e|--------------------------------------|
B|--------------------------------------|
G|-5-5-5--------------------------------|  x2
D|-5-5-5-6-6-6-2-2-7-7-7-7~77--5-5-5~55-|
A|-3-3-3-6-6-6-2-2-7-7-7-7~77--5-5-5~55-|
E|-------4-4-4-0-0-5-5-5-5~55--3-3-3~33-|

  Third Time:
  e|---------------------------------|
  B|---------------------------------|
  G|-5-5-5---------------------------|
  D|-5-5-5-6-6-6-2-2-7-7-7-7~77--5-5-|
  A|-3-3-3-6-6-6-2-2-7-7-7-7~77--5-5-|
  E|-------4-4-4-0-0-5-5-5-5~55--3-3-|


Final Chorus:

e|--------------------------------------|
B|--------------------------------------|
G|-5-5-5--------------------------------|  x10
D|-5-5-5-6-6-6-2-2-7-7-7-7-77--5-5-5-55-|
A|-3-3-3-6-6-6-2-2-7-7-7-7-77--5-5-5-55-|
E|-------4-4-4-0-0-5-5-5-5-55--3-3-3-33-|


And there you have it. The sixth time through the last chorus, a second guitar with more
is added and plays the same chorus until the end. Remember also to graduallly let up on
palm mute as you play the chorus, and also increase the distortion gradually. I have 
plenty of tabs for this song that are slightly incorrect, and I've done this one to the
of my ability, so if you see any mistakes, just let me know, and I'll fix them.

KEY:
| PM Palm Mute
| ~  let ring
Tap to rate this tab
# A B C D E F G H I J K L M N O P Q R S T U V W X Y Z