Song name
# A B C D E F G H I J K L M N O P Q R S T U V W X Y Z

Incubus - Wish You Were Here tab

song: wish you were here
album: morning view
tabbed by: shawn tobin
email:shawn_tobin@hotmail.com
tuning: standard  

 ...here is a more detailed tab of 'wish you were here'
 enjoy.

intro:  clean
e------------------------------------------------------------------------------
b------0-----------------------------------------------------------------------
g----4-4------4-4-4-4------------------------2---------------------------------
d----2-2-(0)--2-2-2-2--xx--4--4-4-/-7-7--2-0-2-2-0-----------------------------
a--0----------2-2-2-2--xx--2--2-2-/-5-5--0-0-2-2-0-----------------------------
e-------------0--------------------------------0-------------------------------

e------------------------------------------------------------------------------
b------0-----------------------------------------------------------------------
g----4-4------4-4-4-4-----------------------------9/11-------------------------
d----2-2-(0)--2-2-2-2--xx-4--4-4-/-7-7--2-2-2-----9/11-------------------------
a--0----------2-2-2-2--xx-4--4-4-/-7-7--2-2-2-----7/9--------------------------
e-------------0-----------2--2-2-/-5-5--0-0-0----------------------------------


chourus w/dist
e------------------------------------------------------------------------------
b------------------------------------------------------------------------------
g-4-4-4-----4-4-4-4-4--44---4-4-4-/-7-7-x--------------------------------------
d-2-2-2-(0)-2-2-2-2-2--22---4-4-4-/-7-7-x-2-2-2--------------------------------
a-0-0-0-----2-2-2-2-2--22---2-2-2-/-5-5-x-2-2-2--------------------------------
e-----------0-0-0-0-0--00-----------------0-0-0--------------------------------

e------------------------------------------------------------------------------
b------------------------------------------------------------------------------
g-4-4-4-----4-4-4-4-4--44------------------------------------------------------
d-2-2-2-(0)-2-2-2-2-2--22--4--4-4-/-7-7-x--2-2-2-------------------------------
a-0-0-0-----2-2-2-2-2--22--4--4-4-/-7-7-x--2-2-2-------------------------------
e-----------0-0-0-0-0--00--2--2-2-/-5-5-x--0-0-0-------------------------------


verse    w/clean delay                 
e--------0---0---0-------------------------12--------9-------------------------
b----------7---7---7--------------------10----10-----10------------------------
g--------------------6----------------9----------9---9-------------------------
d-----------------------------------9------------------------------------------
a------------------------------------------------------------------------------
e------------------------------------------------------------------------------
                                           
e--------0---0---0--------------------4--------0-0-0---------------------------
b----------7---7---7-----------0----5---5----7-5-5-5---------------------------
g---------------------6-----------6-------6--6-6-6-6---------------------------
d------------------------------------------------------------------------------
a------------------------------------------------------------------------------
e------------------------------------------------------------------------------

Bridge:
-I initially thought that the overwhelming phase sound was done on guitar, but i realized it was a sample. Mike is always doing shit with his phase pedals so it first struck me as guitar. It's probably a guitar sound sample... i dunno. anyways.

e|--0--|--0--|--0--|-----------------------------------------------------------
b|--0--|--0--|--0--|-----------------------------------------------------------
g|--3--|--6--|--4--|----/-12-12-12-12-12---------------------------------------
d|--4--|--7--|--5--|----/-12-12-12-12-12---------------------------------------
a|--4--|--7--|--5--|----/-10-10-10-10-10---------------------------------------
e|--2--|--5--|--3--|-----------------------------------------------------------

ending chord
e-------
b--0----
g--2----
d--2----
a--0----
e--0----

**the part(s) that i think arn't compleatly correct in this tab:
   -certain verse notes _might_ be played slightly differantly.  

  well, das it. Any comments send to shawn_tobin@hotmail.com  
  i think it's fairly accurate though.
Tap to rate this tab
# A B C D E F G H I J K L M N O P Q R S T U V W X Y Z