Song name
# A B C D E F G H I J K L M N O P Q R S T U V W X Y Z

Incubus - Mexico tab

Intro+verse

e--------0------0-----0------0--------------------0-----0--
B--------0------0-----0------0--------------------X-----X--
G-----------------------------------7------7------2-----2-- 
D------9------9-----5------5--------0------0---------------
A----7------7-----3------3--------8------8------3-----3----
E-------------------------------6------6------1-----1------

e--------0------0-----0------0--------------------0-----0--
B--------8------8-----0------0--------------------X-----X--
G-----------------------------------7------7------2-----2-- 2x's
D------9------9-----5------5--------0------0---------------
A----7------7-----3------3--------8------8------3-----3----
E-------------------------------6------6------1-----1------

Chorus

e-----------------------------------------------------------------------
B--------0---0---0-------------------------------------------0----------
G--------0---0---0---0-------0--0--0--0--0--0--0--0-------0--0--0-------
D------------4---4---0-------0--0--0--0--0--0--0--0-----5---------------
A------2---------------------X--X--X--X--X--X--X--X---3------------0----
E----0-----------------------3--3--3--3--3--3--3--3---------------------

e-----------------------------------------
B---------------------0-------0-----------
G---0--0--0-------0---0-------0-----------2x's
D---2--2--0-------0---0---0---0---0-------
A---0--0--0-------0-------0---0---0-------
E-----------------------------0---0-------

Ending

e-------------------------------------------------------------
B-------------------------------------------------------------
G--0--0--0--0--0---2--2--2--2--2--2--2--2---------------------
D--0--0--0--0--0---1--1--1--1--1--1--1--1---2--2--2--2--2-----
A--X--X--X--X--X---2--2--2--2--2--2--2--2---4--4--4--4--4-----
E--3--3--3--3--3----------------------------0--0--0--0--0-----

e-------------------------------------------------------------
B-------------------------------------------------------------
G--0--0--0--0--0--0--0--0------------------------------------- 2x's
D--X--X--X--X--X--X--X--X-------------------------------------
A--3--3--3--3--3--3--3--3-------------------------------------
E--3--3--3--3--3--3--3--3-------------------------------------

e-------0--------0---0
B-------x--------x---0
G-------2--------2---2
D--------------------0
A----3-------3-------3
E--1-------1---------1
Tap to rate this tab
# A B C D E F G H I J K L M N O P Q R S T U V W X Y Z