Song name
# A B C D E F G H I J K L M N O P Q R S T U V W X Y Z

Incubus - Summer Romance tab

Incubus - Summer Romance (Anti Gravity Love Song) 

Standard Tuning: 

Riff 

E|----------------------------------------------- 
B|----------------------------------------------- 
G|----------------------------------------------- 
D|----------------------------------------------- 
A|--2h5--2-x-0h2------------2h5--2-x-0h2--------- 
E|-----------------2-2h5-------------------3-3h5- 


E|---------------------------------- 
B|---------------------------------- 
G|---------------------------------- 
D|---------------------------------- 
A|-2h5-x-0h2------------------------ 
E|-----------0h2--2h3--3h5---------- 


Riff II (only played once at the end of the intro) 
E|-7-10-7----------------------------------------------------- 
B|--------9--------------------------------------------------- 
G|----------9-7----------7---7/9-7-7-------------------------- 
D|--------------9-7--6-9---9---------------------------------- 
A|------------------------------------------------------------ 
E|------------------------------------------------------------ 

Phrase I - This phrase is used through the verses 
and Part II of the chorus 
Bm7 
E|--7-----10-/-12-/-14-\-12-\-10-/-12-\-10-\-7---------------- 
B|--7--------------------------------------------------------- 
G|--7-----7--/ 9--/ 11-\ 9--\ 7- / 11-\ 7--\ 4---------------- 
D|--7--------------------------------------------------------- 
A|--9--------------------------------------------------------- 
E|--7--------------------------------------------------------- 

Phrase II - Chorus (Part 1) 
Em7 Dmaj7 A#Dim7 Bm7 Gmaj7 
E|--7-------5------------------7-------3---------------------- 
B|--8-------7--------8---------7-------3---------------------- 
G|--7-------6--------6---------7-------4---------------------- 
D|--9-------7--------8---------7-------4---------------------- 
A|--7-------5--------7---------9-------5---------------------- 
E|-------------------6---------7-------3---------------------- 

Phase III 
Gmaj7 F# 
E|--3-------2------------------------------------------------- 
B|--3-------2------------------------------------------------- 
G|--4-------3------------------------------------------------- 
D|--4-------4------------------------------------------------- 
A|--5-------4------------------------------------------------- 
E|--3-------2-------------------------------------------------
Tap to rate this tab
# A B C D E F G H I J K L M N O P Q R S T U V W X Y Z