Song name
# A B C D E F G H I J K L M N O P Q R S T U V W X Y Z

Incubus - Drive tab

Tristan Hoogland
drummer180@hotmail.com
http://ussjlegend.cjb.net

Incubus - Drive

Im so sick of all the drive tabs that have come out there all
wrong!  I have the full correct version which sounds exactly
like it should and does!  So here it is "Drive" by "Incubus"
FOR WHAT ORDER OF PLAY AND DURATION LOOK AT BOTTOM OF PAGE.
Key:
x=Block
/=Slide
^=Vibrate


TUNING: STANDARD

(Guitar 1)Intro: 
   Em   E#   Dm#      Cmb   C/A    
E|----0-0-0-x-0------0-0-0-0-0-0|
B|----8-8-8-x-7------5-5-5-5-5-5|
G|----x-x-x-x-7------4-4-4-x-x-x|  
D|9-9-9-9-9-x-6--5-5-5-5-5-5-5-5|
A|7-7-7-7-7-x-7--3-3-3-3-3-3-3-3|
E|0-0-0-0-0-x-0--0-0-0-0-0-5-5-5|
     
(Guitar 1)Verse:
   Em   E#   Dm#      Cmb   C/A    
E|----0-0-0-x-0------0-0-0-0-0-0|
B|----8-8-8-x-7------5-5-5-5-5-5|
G|----x-x-x-x-7------4-4-4-x-x-x|  
D|9-9-9-9-9-x-6--5-5-5-5-5-5-5-5|
A|7-7-7-7-7-x-7--3-3-3-3-3-3-3-3|
E|0-0-0-0-0-x-0--0-0-0-0-0-5-5-5|

(Guitar 2)Verse:  (PICS WHILE GUITAR 1 PLAYS VERSE)
   E   E# Dm#      Cmb   C/A 
E|---------------------------|
B|----8-8---7-------5--------|
G|----------------4---4------|
D|--9-----------5-----------5|
A|7-------0h7-3-----------3--|
E|----------------------5----|

(Guitar 1)Bridge:
         C               A
E|0-0-0-0-0-0-0-0-0-0-0-0-0-0-0-0|          
B|1-1-1-1-1-1-1-1-2-2-2-2-2-2-2-2|
G|0-0-0-0-0-0-0-0-2-2-2-2-2-2-2-2| REPEAT X4 (but on 4th time
D|2-2-2-2-2-2-2-2-2-2-2-2-2-2-2-2| Finsh on one strum of "A"
A|3-3-3-3-3-3-3-3-0-0-0-0-0-0-0-0|
E|0-0-0-0-0-0-0-0-0-0-0-0-0-0-0-0|

(Guitar 1&2)CHORUS: 
   Em   E#   Dm#      Cmb   C/A    
E|----0-0-0-x-0------0-0-0-0-0-0|
B|----8-8-8-x-7------5-5-5-5-5-5|
G|----x-x-x-x-7------4-4-4-x-x-x|  REPEAT X4
D|9-9-9-9-9-x-6--5-5-5-5-5-5-5-5|
A|7-7-7-7-7-x-7--3-3-3-3-3-3-3-3|
E|0-0-0-0-0-x-0--0-0-0-0-0-5-5-5|

INTERLUDE:  (guitar 1&2 play different riffs as seen below
both play at same time.)

Guitar 1:
   Em   E#   Dm#      Cmb   C/A    
E|----0-0-0-x-0------0-0-0-0-0-0|
B|----8-8-8-x-7------5-5-5-5-5-5|
G|----x-x-x-x-7------4-4-4-x-x-x|  
D|9-9-9-9-9-x-6--5-5-5-5-5-5-5-5|
A|7-7-7-7-7-x-7--3-3-3-3-3-3-3-3|
E|0-0-0-0-0-x-0--0-0-0-0-0-5-5-5|


Guitar 2:
E|--0-0-0-0-0/--7/--5/--3--------------------------------------|
B|---------------------------10/--3/--5--------5-----5---------|
G|--------------------------------------7^7------7^----7^----8-|
D|-------------------------------------------------------------|
A|-------------------------------------------------------------|
E|-------------------------------------------------------------|

E|5/7-7--7/5--5/10--7--5--7---------------5----5/3-------------|
B|--------------------------5--3/5-----------------5/3---------|
G|---------------------------------7^7-----------------4/2-2/4-|
D|-------------------------------------------------------------|
A|-------------------------------------------------------------|
E|-------------------------------------------------------------|

ORDER OF PLAY:

INTRO X4
VERSE x4
BRIDGE x4
CHORUS x4
VERSE x4
BRIDGE x4
CHORUS x4
INTERLUDE x1
BRIDGE x2 (end on "A" 2nd time through)
CHORUS x4
CHORUS x4
BRIDGE x1 (end on "A" 1st time through)
Tap to rate this tab
# A B C D E F G H I J K L M N O P Q R S T U V W X Y Z