Song name
# A B C D E F G H I J K L M N O P Q R S T U V W X Y Z

Incubus - Pardon Me tab

Help us improve GuitareTab! Take a short survey!
INCUBUS - PARDON ME (ACOUSTIC)

If you think this isn't the right tab, take a look at a live acoustic show....
I'm quite shure that this is the right one, And Mike doesn't play that simple as the other tabs.....
And you have to listen to the song to learn the correct details, because it's hard to make the tabs perfect...
Enjoy yourself!

intro
E|---------------------------------|---------------------------0-----|(X2)
B|---------0---------------0-------|---------0-----------------0-----|
G|-----4-----4---------4-----4-----|-----4-----4---------4-----4-----|
D|---2---2-----2-----2---2-----2---|---2---2-----2-----2---2---2-----|
A|-4-------------4--0------------0-|-4-------------4--0--------4-----|
E|---------------------------------|---------------------------------|

 Pardon me while I burst

E|-4---4---4-----4---0-0---0-------|-4---4---4-------0-0---0---------|
B|-4---4---4-----4---0-0---0-------|-4---4---4-------0-0---0---------|
G|-6---6---6-----6---2-2---2-------|-6---6---6-------2-2---0---------|
D|-6---6---6-----6---2-2---2-------|-6---6---6-------2-2---2---------|
A|-4---4---4-----4---0-0---0-------|-4---4---4-------0-0---2---------|
E|---------------------------------|-----------------------0---------|

E|-4-------4-----4---0-0---0-------|-4-------4------7----------------|
B|-4-------4-----4---0-0---0-------|-4-------4------7----------------|
G|-6-------6-----6---2-2---2-------|-6-------6------9----------------|
D|-6-------6-----6---2-2---2-------|-6-------6------9--7---9---------|
A|-4-------4-----4---0-0---0-------|-4-------4------7--9---7---------|
E|---------------------------------|-------------------9---5---------|

Verse

E|-------0-----------------0-------|---------------------------------|
B|-------7-----------------7-------|---------------------------------|
G|-------4-----------------4-------|-------------6----------------6--|
D|-6-----6-----6-----------6-------|-------------4-----4----------4--|
A|-------------------7-----------7-|-7-----6-----6-----------6----6--|
E|---------------------------------|---------------------------------|

A Decade ago, never thought I would be, at twenty-three, on the verge
of spontaneous combustion, woe-is-me.

---------------0--0----------0--0--|--------0--0---------------0--0--|
B|-------------0--0----------0--0--|--------5--5---------------5--5--|
G|--------8----8--8----------8--8--|--------7--7---------------7--7--|
D|------6------6--6-------9--9--9--|----7---7--7----7------7---7--7--|
A|-6--4--------4--4-----9----9--9--|-5------------------5------------|
E|--------------------7------7--7--|---------------------------------|

But I guess that it comes with the territory; an ominous landscape of
neverending calamity.

E|------------0--0--------4--4-----|-----4-4-4-----------4-4-4-------|
B|------------0--0--------4--4-----|-----4-4-4-----------4-4-4-------|
G|--------8---8--8--------4--4-----|-----4-4-4-----------4-4-4-------|
D|------6-----6--6----6---6--6-----|-2-----------2---2-----------2---|
A|-5--4-------4--4----6------------|---------------------------------|
E|--------------------4------------|---------------------------------|

I need you to hear, I need you to see that I have had all I can take
and exploding seems like a definite

E|-----2-2-2-------------0-0-0-----|-0-------0-----0-----0---0-0---4-|
B|-----2-2-2-------------0-0-0-----|-0-------0-----0-----0---0-0---4-|
G|-----0-0-0---------4---3-3-3-----|-2-------2-----2-----2---2-2---6-|
D|-1--------------4----------------|-2-------2-----2-----2---2-2---6-|
A|-------------2-------------------|-0-------0-----0-----0---0-0---4-|
E|---------------------------------|---------------------------------|

possibility to me.

Chorus
E|-4---4--4---2-2--2--2--0--0---0---|-0--0---------------------------|
B|-4---4--4---2-2--2--2--0--0---0---|-0--0---------------------------|
G|-6---6--6---4-4--4--4--2--2---2---|-2--2---------------------------|
D|-6---6--6---4-4--4--4--2--2---2---|-2--2--------4-2-2-2---4-2-2-2--|
A|-4---4--4---2-2--2--2--0--0---0---|-0--0--------4-2-2-2---4-2-2-2--|
E|----------------------------------|-------------2-0-0-0---2-0-0-0--|

So pardon me while I burst into flames.

E|-4--4-4---4-----2-2---2---0-0-0-|---0----0-------------------------|
B|-4--4-4---4-----2-2---2---0-0-0-|---0----0-------------------------|
G|-6--6-6---6-----4-4---4---2-2-2-|---2----2-------------------------|
D|-6--6-6---6-----4-4---4---2-2-2-|---2----2-----4-2-2-2---4-2-2-2---|
A|-4--4-4---4-----2-2---2---0-0-0-|---0----0-----4-2-2-2---4-2-2-2---|
E|--------------------------------|--------------2-0-0-0---2-0-0-0---|

I've had enough of the world and its people's mindless games.

E|-4--4-4---4----0---0-0-----2-2-2-|---2--2-----0---0--0--0--0--------|
B|-4--4-4---4----0---0-0-----2-2-2-|---2--2-----0---0--0--0--0--------|
G|-6--6-6---6----2---2-2-----4-4-4-|---4--4-----4---4--4--4--4--------|
D|-6--6-6---6----2---2-2-----4-4-4-|---4--4-----4---4--4--4--4--------|
A|-4--4-4---4----0---0-0-----2-2-2-|---2--2-----2---2--2--2--2--------|
E|---------------------------------|----------------------------------|

So pardon me while I burn and rise above the flames.

E|-4--4-4---4----0---0-0-----2-2-2-|---2--2---2-----------------------|
B|-4--4-4---4----0---0-0-----2-2-2-|---2--2---2-----------------------|
G|-6--6-6---6----2---2-2-----4-4-4-|---4--4---4-----------------------|
D|-6--6-6---6----2---2-2-----4-4-4-|---4--4---4----4-2-2-2---4-2-2-2--|
A|-6--4-4---4----0---0-0-----2-2-2-|---2--2---2----4-2-2-2---4-2-2-2--|
E|---------------------------------|---------------2-0-0-0---2-0-0-0--|

Pardon me, pardon me... I'll never be the same.

Bridge 

E|---------------------------------|---------------------------------|
B|---------------------------------|---------------------------------|
G|---------------------------------|---------------------------------|
D|-6-6-------------2-2-------------|-6-6-------------2-2-------------|
A|-6-6-------------2-2-------------|-6-6-------------2-2-------------|
E|-4-4-------------0-0-------------|-4-4-------------0-0-------------|


(Play Verse)

Not two days ago I was having a look in a book,
and I saw a picture of a guy fried up above his knees.
I guess I can relate, cause lately I've been thinking of combustication
as a welcomed vacation from the burdens of the planet Earth,
like gravity, hypocrisy and the perils of being in 3-D,
and thinking so much differently.

(Play Chorus)

So pardon me while I burst into flames.
I've had enough of the world and its people's mindless games.
So pardon me while I burn and rise above the flames.
Pardon me, pardon me... I'll never be the same.

Bridge 

E|---------------------------------|-------------------------0-------|
B|---------0---------------0-------|---------0---------------0-------|
G|-----4-----4---------4-----4-----|-----4-----4---------4---4-------|
D|---2---2-----2-----2---2-----2---|---2---2-----2-----2---2-2-------|
A|-4-------------4--0------------0-|-4-------------4--0------4-------|
E|---------------------------------|---------------------------------|
                                                                 (4x)
Never be the same...yeah
Pardon me while I burst into flames.
Pardon me, pardon me, pardon me...

E|-----0-------0-------0-----------|----------------------------
B|---0---0---0---0---0---0---------|------------------------
G|-6-------4-------6-------6--4----|------------------------
D|-------------------------------5-|---------------------------
A|---------------------------------|--------------------------
E|---------------------------------|----------------------------
                                                                 
 (Play Chorus)
 
So pardon me while I burst into flames.
I've had enough of the world and its people's mindless games.
So pardon me while I burn and rise above the flames.
Pardon me, pardon me... I'll never be the same.........

E|-4---4---4-----4---0-0---0-------|-4---4---4-------0-0---0---------|
B|-4---4---4-----4---0-0---0-------|-4---4---4-------0-0---0---------|
G|-6---6---6-----6---2-2---2-------|-6---6---6-------2-2---0---------|
D|-6---6---6-----6---2-2---2-------|-6---6---6-------2-2---2---------|
A|-4---4---4-----4---0-0---0-------|-4---4---4-------0-0---2---------|
E|---------------------------------|-----------------------0---------|

E|4-------4------7-----------------|-4---4---4-------0-0---0---------|
B|4-------4------7-----------------|-0---0---0-------0-0---0---------|
G|6-------6------9-----------------|-6---6---6-------2-2---0---------|
D|6-------6------9--7---9----------|-6---6---6-------2-2---2---------|
A|4-------4------7--9---7----------|-4---4---4-------0-0---2---------|
E|------------------9---5----------|-----------------------0---------|
  ....never be the same yeah


Related for Pardon Me tab