Song name
# A B C D E F G H I J K L M N O P Q R S T U V W X Y Z

Incubus - Wish You Were Here tab

Intro (slight distortion)
E---------------------------------------------------
B---------------------------------------------------
G-4--4-4-4--4--4-4-4--4-4--4--4-4-4--7-7------------
D-2----2-2--2--2-2-2--2-2--4--4-4-4--7-7--2--2-2-2--
A-0----0----2---------2-2--2--2-2-2--5-5--2--2-2-2--
E-----------0---------0-0--2--2-2-2--5-5--0--0-0-0--

E---------------------------------------------------
B---------------------------------------------------
G-4--4-4-4--4--4-4-4--4-4-----------------9/11-11---
D-2----2-2--2--2-2-2--2-2--4--4-4-4--7-7------------
A-0----0----2---------2-2--4--4-4-4--7-7--7/-9--9---
E-----------0---------0-0--2--2-2-2--5-5------------

Chorus (full distortion)
E---------------------------------------------------
B---------------------------------------------------
G-4--4-4-4--4--4-4-4--4-4--4--4-4-4--7-7------------
D-2--2-2-2--2--2-2-2--2-2--4--4-4-4--7-7--2--2-2-2--
A-0--0-0-0--2--2-2-2--2-2--2--2-2-2--5-5--2--2-2-2--
E-----------0--0-0-0--0-0--2--2-2-2--5-5--0--0-0-0--

E---------------------------------------------------
B---------------------------------------------------
G-4--4-4-4--4--4-4-4--4-4---------------------------
D-2--2-2-2--2--2-2-2--2-2--4--4-4-4--7-7--2--2-2-2--
A-0--0-0-0--2--2-2-2--2-2--4--4-4-4--7-7--2--2-2-2--
E-----------0--0-0-0--0-0--2--2-2-2--5-5--0--0-0-0--

Verse (slight distortion with delay)
E-----------------------------12--------
B---------------------------------9h10--
G--9h11-9h11-9h11----------11-----------
D-----------------11--9h11--------------
A---------------------------------------
E---------------------------------------

E-------------------------------------------
B----------------------------9-----0--0-----
G--9h11-9h11-9h11----------9-----9-9--9-----
D-----------------11--11h9-----11--11-------
A-------------------------------------------
E-------------------------------------------

Bridge (heavy phaser/flanger) (strumming is not included)
E-0-----0----0-----0----0-----0---------0-----0--------
B-0-----0----0-----0----0-----0---------0-----0--------
G-6--9--7----6--9--7----6--9--7-12-12---6--5--7-12-12--
D------------------------------------------------------
A-4--7--5----4--7--5----4--7--5-10-10---4--7--5-10-10--
E------------------------------------------------------

end on
E---
B---
G-4-
D-2-
A-0-
E---
Tap to rate this tab
# A B C D E F G H I J K L M N O P Q R S T U V W X Y Z