Song name
# A B C D E F G H I J K L M N O P Q R S T U V W X Y Z

Incubus - Nebula tab

TAB: Nebula
Band: Incubus
Album: S.C.I.E.N.C.E
Transcribed by: David Noweta a.k.a Heliumhead
Email:Daven@yesic.com
Tuning: Drop D (DADGBE)
 

. 
INTRO
(This part there is hardly no guitar just drum and bass. 
The guitar is a single note that you hear in the background)

clean 
      Let Ring............
E-----------------------------------------------------------------
B----11-----------------------------------------------------------
G-----------------------------------------------------------------
D-----------------------------------------------------------------
A-----------------------------------------------------------------
D-----------------------------------------------------------------

    w/distortion , The heaviest part in the song.(This riff has a very tricky rhythem listen carefully to it)
E---------------------------------------------------------------------------------------------------------------
B---------------------------------------------------------------------------------------------------------------
G---------------------------------------------------------------------------------------------------------------
D--7-7--8--7-7-7--8---7-7-7-7-7---8---7-7-7---8---7-7-7-7-7---8---7-7-7---8---7-7-7-7-7---8---7-7-7--8--7----8--
A--7-7--6--7-7-7--6---7-7-7-7-7---6---7-7-7---6---7-7-7-7-7---6---7-7-7---6---7-7-7-7-7---6---7-7-7--6--7----6--
D--7-7-- --7-7-7------7-7-7-7-7-------7-7-7-------7-7-7-7-7-------7-7-7-------7-7-7-7-7-------7-7-7-----7-------

w/ a weird chorus/phaser/flanger effect .   Then play this riff                    play this riff 4 times
  play 3 times and pretty fast              pm.........   pm......       pm..............
E--------------------------------------|-------------------------------|-----------------------
B--------------------------------------|-------------------------------|-----------------------
G--------------------------------------|-------------------------------|-----------------------
D-------4--2--0-2-0------0-------------|- -5---5-5-5-----7---7-7-7-----|-----------------------
A--2-------------------4---------------|---5---5-5-5-----7---7-7-7-----|--0-0-0-0-0-0-0--------
D--------------------------------------| --5---5-5-5-----7---7-7-7-----|--0-0-0-0-0-0-0--------

  w/distortion This is the riff comes right before the last heavy part in the song 
(The singer laughs during this riff)

E---------------------------------------
B---------------------------------------
G---------------------------------------
D-------7---------7---------------------
A--0-0--5--0-0-0--5---------------------
D--0-0-----0-0-0------------------------

Questions?Comments?Corrections?
Email me at Daven@yesic.com
Tap to rate this tab
# A B C D E F G H I J K L M N O P Q R S T U V W X Y Z