Song name
# A B C D E F G H I J K L M N O P Q R S T U V W X Y Z

Incubus - Just A Phase tab

Title: Just a Phase
Band: Incubus
Album: Morning View
Tuning: Standard (EADGBe)
Tabbed by: simpleppl@hotmail.com

----------------
| ~ - ring out |
----------------

  Intro
e|---------------------------------------2---2-2-2---2-2-2-2-2-2-2-2--
B|-------------------0-------------------2---2-2-2---2-2-2-2-2-2-2-2--
G|-----------0---6-----0-----0---------4-4---4-4-4---4-4-4-4-4-4-4-4--
D|-------0-5---0---7-----0-----0-----4---4---4-4-4---4-4-4-4-4-4-4-4--
A|---0-4-------------------7-----0-2-----2---2-2-2---2-2-2-2-2-2-2-2--
E|-0-------------------------------------2---2-2-2---2-2-2-2-2-2-2-2--
                                                                   4x

  Tag
e|-0--0-0-0-0-0--0-0-0-0-0-0-0----2--2-2-2-2-2--2-2-2-2-2-2-2----0--0-0-0-0-0--0-0-0-0-0-0-0--
B|-0--0-0-0-0-0--0-0-0-0-0-0-0----2--2-2-2-2-2--2-2-2-2-2-2-2----0--0-0-0-0-0--0-0-0-0-0-0-0--
G|-1--1-1-1-1-1--1-1-1-1-1-1-1----4--4-4-4-4-4--4-4-4-4-4-4-4----1--1-1-1-1-1--1-1-1-1-1-1-1--
D|-2--2-2-2-2-2--2-2-2-2-2-2-2----4--4-4-4-4-4--4-4-4-4-4-4-4----2--2-2-2-2-2--2-2-2-2-2-2-2--
A|-2--2-2-2-2-2--2-2-2-2-2-2-2----2--2-2-2-2-2--2-2-2-2-2-2-2----2--2-2-2-2-2--2-2-2-2-2-2-2--
E|-0--0-0-0-0-0--0-0-0-0-0-0-0----2--2-2-2-2-2--2-2-2-2-2-2-2----0--0-0-0-0-0--0-0-0-0-0-0-0--


  Pre-Verse
e|-0--0-0-0-0-0--0-0-0-0-0-0-0----2--2-2-2-2-2--2-2-2-2-2-2-2----0--0-0-0-0-0--0-0-0-0-0-0-0--
B|-0--0-0-0-0-0--0-0-0-0-0-0-0----2--2-2-2-2-2--2-2-2-2-2-2-2----0--0-0-0-0-0--0-0-0-0-0-0-0--
G|-1--1-1-1-1-1--1-1-1-1-1-1-1----4--4-4-4-4-4--4-4-4-4-4-4-4----1--1-1-1-1-1--1-1-1-1-1-1-1--
D|-2--2-2-2-2-2--2-2-2-2-2-2-2----4--4-4-4-4-4--4-4-4-4-4-4-4----2--2-2-2-2-2--2-2-2-2-2-2-2--
A|-2--2-2-2-2-2--2-2-2-2-2-2-2----2--2-2-2-2-2--2-2-2-2-2-2-2----2--2-2-2-2-2--2-2-2-2-2-2-2--
E|-0--0-0-0-0-0--0-0-0-0-0-0-0----2--2-2-2-2-2--2-2-2-2-2-2-2----0--0-0-0-0-0--0-0-0-0-0-0-0--

e|-------------------------------------------------------------
B|-------------------------------------------------------------
G|-------------------------------------------------------------
D|-5--5-5-5-5-5--5-5-5-5-5-5-5----4--4-4-4-4-4--4-4-4-4-4-4-4--
A|-5--5-5-5-5-5--5-5-5-5-5-5-5----4--4-4-4-4-4--4-4-4-4-4-4-4--
E|-3--3-3-3-3-3--3-3-3-3-3-3-3----2--2-2-2-2-2--2-2-2-2-2-2-2--


  Verse
e|-------0-----------------------0---------5--------
B|-------0-----------------------0---------4--------
G|-------------------0------------------------------
D|-----6---6-------4---4-------6---6-----6----------
A|---7-------0---5-------5---7-------0-4-----4---6--
E|-0-----------3-----------0-------------------4----
                                                   2x

e|-------0-----------------------0----------4----------------0-----------------------0--------5--------
B|-------0-----------------------0---------5-----------------0-----------------------0--------4--------
G|-------------------0--------------------6------------------------------0-----------------------------
D|-----6---6-------4---4-------6---6-----6-----------------6---6-------4---4-------6---6----6----------
A|---7-------0---5-------5---7-------0-4------4---6------7-------0---5-------5---7-------0-4----4---6--
E|-0-----------3-----------0--------------------4------0-----------3-----------0------------------4----
                                                                                                      3x

  Pre-Chorus
e|---------------------------------------------
B|---------------------------------------------
G|-------0----------------------0--------------
D|-----6---6------------------6---6------------
A|---4-------4---4----------4-------4---4-3-4--
E|-5-----------5---4-5----5-----------5--------
                                              2x

  Chorus.1
e|----------------------------------|-----------------------0-0-0--
B|----------------------------------|-------------------0-0-0-0-0--
G|-5-5-5----------------------------|-5-5-5---------6-6-6-6-6-4-4--
D|-5-5-5-6-6-2-2-7-7-7-7-7-5-5-5-5--|-5-5-5-6-6-2-2-7-7-7-7-7-5-5--
A|-3-3-3-6-6-2-2-7-7-7-7-7-5-5-5-5--|-3-3-3-6-6-2-2-7-7-7-7-7-5-5--
E|-3-3-3-4-4-0-0-5-5-5-5-5-3-3-3-3--|-3-3-3-4-4-0-0-5-5-5-5-5-3-3--
                                 3x/2x

  Chorus.2
e|---------------0-0-0-0-0-0-0-0-0--|---------------0~--
B|---------------0-0-0-0-0-0-0-0-0--|---------------0~--
G|-5-5-5-----1-1-6-6-6-6-6-4-4-4-4--|-5-5-5-----1-1-6~--
D|-5-5-5-6-6-2-2-7-7-7-7-7-5-5-5-5--|-5-5-5-6-6-2-2-7~--
A|-3-3-3-6-6-2-2-7-7-7-7-7-5-5-5-5--|-3-3-3-6-6-2-2-7~--
E|-3-3-3-4-4-0-0-5-5-5-5-5-3-3-3-3--|-3-3-3-4-4-0-0-5~--
                                   9x


Intro           / Chorus.1
Tag            /  Verse (line.2)
Intro         /   Pre-Chorus
Pre-Verse    /    Chorus.1
Verse       /     Chorus.2
Pre-Chorus /
Tap to rate this tab
# A B C D E F G H I J K L M N O P Q R S T U V W X Y Z