Song name
# A B C D E F G H I J K L M N O P Q R S T U V W X Y Z

Incubus - Mexico tab

Band: Incubus
Song: Mexico
Album: Morning View
tabbed by: ferdinand vidal(adik sa incubus)

F = Fingerpluck

Mga pre im 100% of this tab kaya vote noy ko
Please vote, submit a comment or correction. Enjoy!

Intro/Verse1 (0:00)
       F     F     F     F         F     F     F     F
E|-----0-----0-----0-----0---------------------0-----0-|
B|-----0-----0-----0-----0---------------------x-----x-|
G|---------------------------------7-----7-----2-----2-|
D|---9-----9-----5-----5-----------0-----0-------------|
A|-7-----7-----3-----3-----------8-----8-----3-----3---|
E|---------------------------0-6-----6-----1-----1-----|
       F     F     F     F         F     F     F     F
E|-----0-----0-----0-----0---------------------0-----0-|
B|-----8-----8-----0-----0---------------------x-----x-|
G|---------------------------------7-----7-----2-----2-|
D|---9-----9-----5-----5-----------0-----0-------------|
A|-7-----7-----3-----3-----------8-----8-----3-----3---|
E|---------------------------0-6-----6-----1-----1-----|
       F     F     F     F         F     F     F     F
E|-----0-----0-----0-----0---------------------0-----0-|
B|-----0-----0-----0-----0---------------------x-----x-|
G|---------------------------------7-----7-----2-----2-|
D|---9-----9-----5-----5-----------0-----0-------------|
A|-7-----7-----3-----3-----------8-----8-----3-----3---|
E|---------------------------0-6-----6-----1-----1-----|
       F     F     F     F         F     F     F     F
E|-----0-----0-----0-----0---------------------0-----0-|
B|-----0-----0-----0-----0---------------------x-----x-|
G|---------------------------------7-----7-----2-----2-|
D|---9-----9-----5-----5-----------0-----0-------------|
A|-7-----7-----3-----3-----------8-----8-----3-----3---|
E|---------------------------0-6-----6-----1-----1-----|
       F     F     F     F         F     F     F     F
E|-----0-----0-----0-----0---------------------0-----0-|
B|-----0-----0-----0-----0---------------------x-----x-|
G|---------------------------------7-----7-----2-----2-|
D|---9-----9-----5-----5-----------0-----0-------------|
A|-7-----7-----3-----3-----------8-----8-----3-----3---|
E|---------------------------0-6-----6-----1-----1-----|
       F     F     F     F         F     F     F     F
E|-----0-----0-----0-----0---------------------0-----0-|
B|-----8-----8-----0-----0---------------------x-----x-|
G|---------------------------------7-----7-----2-----2-|
D|---9-----9-----5-----5-----------0-----0-------------|
A|-7-----7-----3-----3-----------8-----8-----3-----3---|
E|---------------------------0-6-----6-----1-----1-----|

Chorus1 (0:45)
E|---|-----------------------------|
B|---|-----------------------------|
G|---|-------0-0---0-0-0-0-0-0-0---|
D|---|-----4-4-4---0-0-0-0-0-0-0---|
A|---|---2---2-2-0-5-5-5-5-5-5-5-0-|
E|-1-|-0-----0-0-0-3-3-3-3-3-3-3-0-|

E|-----------------------------|
B|-------0-0-------------------|
G|-----0-0-0-------------------|
D|---5---5-5---7-7-7-7-7-7-7---| 
A|-3-----3-3-0-7-7-7-7-7-7-7-0-| 
E|-----------0-5-5-5-5-5-5-5-0-| 

E|-----------------------------|
B|-----------------------------|
G|-------0-0---0-0-0-0-0-0-0---|
D|-----4-4-4---0-0-0-0-0-0-0---|
A|---2---2-2-0-5-5-5-5-5-5-5-0-|
E|-0-----0-0-0-3-3-3-3-3-3-3-0-|

E|-------------------------------|
B|-------------------------------|
G|-7-7-7-7---5-5-5-5-5-5-5-5-5---|
D|-7-7-7-7---5-5-5-5-5-5-5-5-5---|
A|-5-5-5-5-0-3-3-3-3-3-3-3-3-3-0-|
E|-5-5-5-5-0-3-3-3-3-3-3-3-3-3-0-|
               X2

Verse2 (1:19)
       F     F     F     F         F     F     F     F
E|-----0-----0-----0-----0---------------------0-----0-|
B|-----0-----0-----0-----0---------------------x-----x-|
G|---------------------------------7-----7-----2-----2-|
D|---9-----9-----5-----5---5-------0-----0-------------|
A|-7-----7-----3-----3-----------8-----8-----3-----3---|
E|---------------------------0-6-----6-----1-----1-----|
       F     F     F     F         F     F     F     F
E|-----0-----0-----0-----0---------------------0-----0-|
B|-----8-----8-----0-----0---------------------x-----x-|
G|---------------------------------7-----7-----2-----2-|
D|---9-----9-----5-----5---5-------0-----0-------------|
A|-7-----7-----3-----3-----------8-----8-----3-----3---|
E|---------------------------0-6-----6-----1-----1-----|
       F     F     F     F         F     F     F     F
E|-----0-----0-----0-----0---------------------0-----0-|
B|-----0-----0-----0-----0---------------------x-----x-|
G|---------------------------------7-----7-----2-----2-|
D|---9-----9-----5-----5-----------0-----0-------------|
A|-7-----7-----3-----3-----------8-----8-----3-----3---|
E|---------------------------0-6-----6-----1-----1-----|
       F     F     F     F         F     F     F     F
E|-----0-----0-----0-----0---------------------0-----0-|
B|-----8-----8-----0-----0---------------------x-----x-|
G|---------------------------------7-----7-----2-----2-|
D|---9-----9-----5-----5-----------0-----0-------------|
A|-7-----7-----3-----3-----------8-----8-----3-----3---|
E|---------------------------0-6-----6-----1-----1-----|
       F     F     F     F         F     F     F     F
E|-----0-----0-----0-----0---------------------0-----0-|
B|-----0-----0-----0-----0---------------------x-----x-|
G|---------------------------------7-----7-----2-----2-|
D|---9-----9-----5-----5-----------0-----0-------------|
A|-7-----7-----3-----3-----------8-----8-----3-----3---|
E|---------------------------0-6-----6-----1-----1-----|
       F     F     F     F         F     F     F     F
E|-----0-----0-----0-----0---------------------0-----0-|
B|-----8-----8-----0-----0---------------------x-----x-|
G|---------------------------------7-----7-----2-----2-|
D|---9-----9-----5-----5---5-------0-----0-------------|
A|-7-----7-----3-----3-----------8-----8-----3-----3---|
E|---------------------------0-6-----6-----1-----1-----|

Chorus2 (2:03)
E|-----|-----------------------------|
B|-----|-----------------------------|
G|-----|-------0-0---0-0-0-0-0-0-0---|
D|-----|-----4-4-4---0-0-0-0-0-0-0---|
A|-----|---2---2-2-0-5-5-5-5-5-5-5-0-|
E|-1-0-|-0-----0-0-0-3-3-3-3-3-3-3-0-|

E|-----------------------------|
B|-------0-0-------------------|
G|-----0---0-------------------|
D|---5-----5---7-7-7-7-7-7-7---| 
A|-3-------3-0-7-7-7-7-7-7-7-0-| 
E|-----------0-5-5-5-5-5-5-5-0-| 

E|-----------------------------|
B|-----------------------------| 
G|-------0-0---0-0-0-0-0-0-0---|
D|-----4-4-4---0-0-0-0-0-0-0---|
A|---2---2-2-0-5-5-5-5-5-5-5-0-|
E|-0-----0-0-0-3-3-3-3-3-3-3-0-|

E|-------------------------------|
B|-------------------------------|
G|-7-7-7-7---5-5-5-5-5-5-5-5-5---|
D|-7-7-7-7---5-5-5-5-5-5-5-5-5---|
A|-5-5-5-5-0-3-3-3-3-3-3-3-3-3-0-|
E|-5-5-5-5-0-3-3-3-3-3-3-3-3-3-0-|
               X2

Bridge (2:38)
E|---------------------------|
B|---------------------------|
G|-0-0-0-0-------------------|
D|-0-0-0-0---7-7-7-7-7-7-7---|
A|-5-5-5-5-0-6-6-6-6-6-6-6-0-|
E|-3-3-3-3-0-7-7-7-7-7-7-7-0-|

E|---------------------------|
B|---------------------------|
G|-0-0-0-0---0-0-0-0-0-0-0---|
D|-4-4-4-4---0-0-0-0-0-0-0---|
A|-2-2-2-2-0-5-5-5-5-5-5-5-0-|
E|-0-0-0-0-0-3-3-3-3-3-3-3-0-|

E|-----------------------------|
B|-----------------------------|
G|-------0-0-------------------|
D|-----0-0-0---7-7-7-7-7-7-7---|
A|---5---5-5-0-6-6-6-6-6-6-6-0-|
E|-3-----3-3-0-7-7-7-7-7-7-7-0-|

E|---------------------------|
B|---------------------------|
G|-0-0-0-0---0-0-0-0-0-0-0---|
D|-4-4-4-4---0-0-0-0-0-0-0---|
A|-2-2-2-2-0-5-5-5-5-5-5-5-0-|
E|-0-0-0-0-0-3-3-3-3-3-3-3-0-|

E|-----------------------------|
B|-----------------------------|
G|-------0-0-------------------|
D|-----0-0-0---7-7-7-7-7-7-7---|
A|---5---5-5-0-6-6-6-6-6-6-6-0-|
E|-3-----3-3-0-7-7-7-7-7-7-7-0-|

E|---------------------------|
B|---------------------------|
G|-0-0-0-0---0-0-0-0-0-0-0---|
D|-4-4-4-4---0-0-0-0-0-0-0---|
A|-2-2-2-2-0-5-5-5-5-5-5-5-0-|
E|-0-0-0-0-0-3-3-3-3-3-3-3-0-|

E|-------------------------------|
B|-------------------------------|
G|-------------------------------|
D|-5-5-5-5-5-5-5-5-5-5-5-5-5-5---|
A|-4-4-4-4-4-4-4-4-4-4-4-4-4-4-0-|
E|-5-5-5-5-5-5-5-5-5-5-5-5-5-5-0-|

E|-----------------------------|
B|-----------------------------|
G|-----------------------------|
D|-3--3-3-3-3--3-3-3-3-3-3-3---|
A|-3--3-3-3-3--3-3-3-3-3-3-3-0-|
E|-1--1-1-1-1--1-1-1-1-1-1-1-0-|

Chorus3 (3:11)
E|-----------------------------|
B|-----------------------------|
G|-------0-0---0-0-0-0-0-0-0---|
D|-----4-4-4---0-0-0-0-0-0-0---|
A|---2---2-2-0-5-5-5-5-5-5-5-0-|
E|-0-----0-0-0-3-3-3-3-3-3-3-0-|

E|-----------------------------|
B|-------0-0-------------------|
G|-----0---0-------------------|
D|---5-----5---7-7-7-7-7-7-7---| 
A|-3-------3-0-7-7-7-7-7-7-7-0-| 
E|-----------0-5-5-5-5-5-5-5-0-| 

E|-----------------------------|
B|-----------------------------|
G|-------0-0---0-0-0-0-0-0-0---|
D|-----4-4-4---0-0-0-0-0-0-0---|
A|---2---2-2-0-5-5-5-5-5-5-5-0-|
E|-0-----0-0-0-3-3-3-3-3-3-3-0-|

E|-------------------------------|
B|-------------------------------|
G|-7-7-7-7---5-5-5-5-5-5-5-5-5---|
D|-7-7-7-7---5-5-5-5-5-5-5-5-5---|
A|-5-5-5-5-0-3-3-3-3-3-3-3-3-3-0-|
E|-5-5-5-5-0-3-3-3-3-3-3-3-3-3-0-|
               X2

Outro (3:44)
       F     F     F     F         F     F     F     F
E|-----0-----0-----0-----0---------------------0-----0-|
B|-----0-----0-----0-----0---------------------x-----x-|
G|---------------------------------7-----7-----2-----2-|
D|---9-----9-----5-----5---5-------0-----0-------------|
A|-7-----7-----3-----3-----------8-----8-----3-----3---|
E|---------------------------0-6-----6-----1-----1-----|
       F     F     F     F         F     F     F    
E|-----0-----0-----0-----0---------------------0-----0-0-|
B|-----8-----8-----0-----0---------------------x-----0-0-|
G|---------------------------------7-----7-----2-----2-2-|
D|---9-----9-----5-----5---5-------0-----0---------------|
A|-7-----7-----3-----3-----------8-----8-----3-----3-----|
E|---------------------------0-6-----6-----1-----1-------|
       F     F     F     F         F     F     F     F
E|-----0-----0-----0-----0---------------------0-----0-|
B|-----0-----0-----0-----0---------------------x-----x-|
G|---------------------------------7-----7-----2-----2-|
D|---9-----9-----5-----5---5-------0-----0-----------0-|
A|-7-----7-----3-----3-----------8-----8-----3-----3-3-|
E|---------------------------0-6-----6-----1-----1---1-|
       F     F     F     F         F     F     F
E|-----0-----0-----0-----0---------------------0--------0-|
B|-----8-----8-----0-----0---------------------x-------0--|
G|---------------------------------7-----7-----2------2---|
D|---9-----9-----5-----5---5-------0-----0-----------0----|
A|-7-----7-----3-----3-----------8-----8-----3------3-----|
E|---------------------------0-6-----6-----1-----1-1------|
Tap to rate this tab
# A B C D E F G H I J K L M N O P Q R S T U V W X Y Z