Song name
# A B C D E F G H I J K L M N O P Q R S T U V W X Y Z

Incubus - Megalomaniac tab

MEGALOMANIAC


INTRO

------ -------------------
999999v99-----------------
------ -------------------	x4
------ -------------------		9v=pull down 9
------ -------------------
------ -------------------


--------------------------
--------------------------
-----44-------------------	x4
66666---------------------
-------6777777776---------
--------------------------


--------------------------
--------------------------
-----44-------------------	x4
66666---------------------
-------67---8-------------
--------------------------

RIFF INTRO

-------------------------
-------------------------
-----88-9-9-666----------	X4
6-66-88-9-9-444----------
4-44-66-7-7-444----------
4-44---------------------

PRE-CHORUS 1 & 2

--------------------------
--------------------------
-----44-------------------	x2
66666---------------------
-------67---8-------------
--------------------------

(no guitar through verse 1)

CHORUS 1

-------------------------
-------------------------
-----88-9-9-666----------	X4
6-66-88-9-9-444----------
4-44-66-7-7-444----------
4-44---------------------

(no guitar through verse 2)

CHORUS 2

-------------------------
-------------------------
-----88-9-9-666----------	X8
6-66-88-9-9-444----------
4-44-66-7-7-444----------
4-44---------------------
Tap to rate this tab
# A B C D E F G H I J K L M N O P Q R S T U V W X Y Z