Song name
# A B C D E F G H I J K L M N O P Q R S T U V W X Y Z

Incubus - Megalomaniac tab

Band: Incubus
Song:Megalomaniac
Album:A Crow left of Murder
tabbed by: Reinaldo Gonzalez
Effects: Distortion, Flanger, Delay

Tuning Standard (EADGBe)

Flanger tuning
 __    __    __    __
/\ \  / /\  /\ \  /| \
\__/  \__/  \__/  \__/
Delay Speed Width Regen

Intro: (Distortion)
e|-----------------------------------------------|
B|-----------------------------------------------|
G|-0-0-0-0-0-0-0>>--0/0-0-0-0-0-0-0-0-0/0-0/0-0--|
D|-5-5-5-5-5-5-5>>--3/5-5-5-7-8-8-0-1-1/3-3/5-5--|
A|-----------------------------------------------| X8
E|-----------------------------------------------|


Post-Intro: (Distortion+flanger)
e|--------------------------------|
B|--------------------------------|
G|-----------8-8-5-5-5------------|
D|-5-5-3-3/5-8-8-5-5-5------------|
A|-5-5-3-3/5-6-6-3-3-3------------| X4
E|-3-3-1-1/3-6-6-3-3-3------------|

Verse 1: (flanger/Delay)
e|--------------------------------------------|
B|-------6^------------6--------------8-6-----|
G|--------------------------------------------|
D|-3-5-0---5-------5-------5------8-------8---|
A|---------------3---3-------3--6---6---------|
E|--------------------------------------------|
And them!
e|---------------------------------------|
B|------------------8-6----------6-4-----|
G|-------3^------------------------------|
D|-3-5-0--------8------8-----5-------5---|
A|------------6---6--------3---3---------| X2
E|---------------------------------------|

Pre-Chorus: (Flanger+distortion)
e|-------------------------------------------|
B|-------------------------------------------|
G|--0-0-0-0-0-0-0-0/0-0-0-0-0-0-0-0-0/0-3----|
D|--5-5-5-5-7-7-3-3/5-5-5-7-8-8-0-1-1/3-3----|
A|-------------------------------------------|
E|-------------------------------------------|

Chorus 1: (flanger+distortion)
e|--------------------------------|
B|--------------------------------|
G|-----------8-8-5-5-5------------|
D|-5-5-3-3/5-8-8-5-5-5------------|
A|-5-5-3-3/5-6-6-3-3-3------------| X5
E|-3-3-1-1/3-6-6-3-3-3------------|


Pre-Verse: (flanger/delay)
e|-------------------------------------------------|
B|--------6^--6-6-6-6---------8-6----------6--4----|
G|-------------------------------------------------|
D|-3-5-0-----5-5-5-5------8-------8----5--------5--|
A|----------------------6---6--------3---3---------|
E|-------------------------------------------------|

Verse 2: (flanger/Delay)
e|--------------------------------------------|
B|-------6^------------6--------------8-6-----|
G|--------------------------------------------|
D|-3-5-0---5-------5-------5------8-------8---|
A|---------------3---3-------3--6---6---------|
E|--------------------------------------------|
And them!
e|---------------------------------------|
B|------------------8-6----------6-4-----|
G|-------3^------------------------------|
D|-3-5-0--------8------8-----5-------5---|
A|------------6---6--------3---3---------| X2
E|---------------------------------------|

Pre-Chorus: (Flanger+distortion)
e|-------------------------------------------|
B|-------------------------------------------|
G|--0-0-0-0-0-0-0-0/0-0-0-0-0-0-0-0-0/0-3----|
D|--5-5-5-5-7-7-3-3/5-5-5-7-8-8-0-1-1/3-3----|
A|-------------------------------------------|
E|-------------------------------------------|

Chorus 2: (Distortion)
e|--------------------------------|
B|--------------------------------|
G|-----------8-8-5-5-5------------|
D|-5-5-3-3/5-8-8-5-5-5------------|
A|-5-5-3-3/5-6-6-3-3-3------------| X4
E|-3-3-1-1/3-6-6-3-3-3------------|
And them!
e|----------------------------------|
B|----------------------------------|
G|-----------8-8-5-5-5--------------|
D|-5-5-3-3/5-8-8-5-5-5--------------|
A|-5-5-3-3/5-6-6-3-3-3--------------|
E|-3-3-1-1/3-6-6-3-3-3-----////////-|
                          (4th time)

Bridge 1: (distortion+delay / distortion+flanger)
e|----10----10----10-------10----|
B|---8-----8-----8---8---8-------|
G|-10----10----10-----10---------|
D|-------------------------------|
A|-------------------------------| X4
E|-------------------------------|
And them!
e|--------------------------------|
B|--0--0-0--0--0--0--0--0--0------|
G|-12-12-0-12-12-10-12-12-13------|
D|--------------------------------|
A|--------------------------------|  X....  (In the last time Mike add other pedals:
E|--------------------------------|           octaver or compresor sustainer)

Pre-Outro: (Flanger)
e|-------------------|
B|-------------------|
G|-0-0-0-0-0-0-0>>---|
D|-5-5-5-5-5-5-5>>---|
A|-------------------| 
E|-------------------|

Outro: (flanger+distortion)
e|--------------------------------|
B|--------------------------------|
G|-----------8-8-5-5-5------------|
D|-5-5-3-3/5-8-8-5-5-5------------|
A|-5-5-3-3/5-6-6-3-3-3------------| X8  (In 4th time add flanger)
E|-3-3-1-1/3-6-6-3-3-3------------|


 Chers! 


Tap to rate this tab
# A B C D E F G H I J K L M N O P Q R S T U V W X Y Z