Song name
# A B C D E F G H I J K L M N O P Q R S T U V W X Y Z

Incubus - Stellar tab

and: Incubus
Song: Stellar
Album: Make Yourself
Tuning: Standard (E A D G B E)
Efects: Distortion, Octaver, Phaser, Flanger


Intro/Verse1:(ligth distortion/clean) 
|----------------------------------------------|
|----------------------------------------------|
|-------9-/-11-11^--6^-------------------------|
|-----9-9-/-11-11^--6^-6------6-6---6-7---9----|
|--0----------------------4-4-----5-----0------|
|----------------------------------------------|

|----------------------------------------------|
|----------------------------------------------|
|-----9-/-11-11^--6^---------------------------|
|-----9-/-11-11^--6^-6-----6-6-----6---9-------|
|----------------------4-4-----7-7---0---------|
|----------------------------------------------|

Pre-Chorus: (Distortion)  
|------------------------------------|
|------------------------------------|
|-7-7-777-7-77-77--4-4-444-4-44-444--|
|-7-7-777-7-77-77--4-4-444-4-44-444--|
|-5-5-555-5-55-55--2-2-222-2-22-222--|
|------------------------------------|

Chorus : (Distortion,Octaver*)
|---00----00-------------------------|
|---00----00-------------------------|
|---22----22-------------------------|
|---22----22----------6*-6*-----6*---|
|---00----00-----4*-4*-----7*-7*-----|
|------------------------------------|

|--00----00---------------------------|
|--00----00---------------------------|
|--22----22---------------------------|
|--22----22--------6*-6*---6*/7*------|
|--00----00---4*-4*-----5*------------| X4
|-------------------------------------|

Post chorus: (Phaser)
|---------------------------------------|
|---------------------------------------|
|------9--/11-11^------------9--/6-6^---|
|------9--/11-11^------------9--/6-6^---|
|---------------------------------------|
|---------------------------------------|

Verse2: (ligth distortion/clean)
|----------------------------------------------|
|----------------------------------------------|
|-------9-/-11-11^--6^-------------------------|
|-----9-9-/-11-11^--6^-6------6-6---6-7---9----|
|--0----------------------4-4-----5-----0------|
|----------------------------------------------|

|----------------------------------------------|
|----------------------------------------------|
|-----9-/-11-11^--6^---------------------------|
|-----9-/-11-11^--6^-6-----6-6-----6---9-------|
|----------------------4-4-----7-7---8---------|
|----------------------------------------------|

Pre-Breakdown: (Distortion)
|---0--0-0------------------------|
|---0--0-0------------------------|
|---2--2-2-----6-66---------------|
|---2--2-2-----6-66--6-6/9---6----|
|---0--0-0-----4-44--6-6/7---6----|
|--------------4-44--4-4/5---4----|

Breakdown: (Phaser/Flanger)
|----------------------------------------|
|----------------------------------------|
|------------------------------------0---|
|-----0--0---------0-0-----------0---0---|
|---7------7-----7-----7-------5-----5---|
|-5----------5-5---------5---3-----3-3---|

|-------------------------------0--|
|-------------------------------0--|
|-------------------------------4--|
|-----2-2--------2-2---------5--5--|
|---2----2-----2-----2-----5----5--| X2
|-0--------0-0---------0-3------3--|

Ending: (Distortion, Octaver*)
|---00----00-------------------------|
|---00----00-------------------------|
|---22----22-------------------------|
|---22----22----------6*-6*-----6*---|
|---00----00-----4*-4*-----7*-7*-----|
|------------------------------------|

|--00----00---------------------------|
|--00----00---------------------------|
|--22----22---------------------------|
|--22----22--------6*-6*---6*/7*------|
|--00----00---4*-4*-----5*------------|  x4
|-------------------------------------|

And them!
|---0--0-0------------------------|    |----------------|
|---0--0-0------------------------|    |----------------|
|---2--2-2-----6-66---------------|    |---Let Ring-----|
|---2--2-2-----6-66--6-6/9---6----|    |--9-->----------|
|---0--0-0-----4-44--6-6/7---6----| x4 |--7-->----------|
|--------------4-44--4-4/5---4----|    |--5-->----------|

good song!!!
Tap to rate this tab
# A B C D E F G H I J K L M N O P Q R S T U V W X Y Z