Song name
# A B C D E F G H I J K L M N O P Q R S T U V W X Y Z

Incubus - The Warmth tab

The Warmth by Incubus
Album: Make Yourself (1999)
Tuning: Standard
Tabbed By: The Clincher

Intro/verse (with delay)
E/------------------------19----|
B/-19b--17---17---17------------|
G/--------19---19---17--16---16-|
D/------------------------------|
A/------------------------------|
E/------------------------------|

 Post-intro riff (with delay and octaver)
E/------------------------------------|
B/-17---17--17--13--13--8--8--8--5--5-|
G/-16---16--16--12--12--7--7--7--4--4-|
D/------------------------------------|
A/------------------------------------|
E/------------------------------------|

VERSE

Chorus 1 and 2 (octaver and delay)
E/------------------------------------|
B/-17---17--17--13--13--8--8--8--5--5-|
G/-16---16--16--12--12--7--7--7--4--4-|
D/------------------------------------|
A/------------------------------------|
E/------------------------------------|

VERSE

CHORUS

Bridge
E/-------------------------------------------------------------------------|
B/-------------------------------------------------------------------------|
G/-------------------------------------------------------------------------|
D/-9p7-9p7-9p7-9-9-7h9-7h9-9p7-9p7-9p7-9p7-9p7-9-9-7h9-7h9-9p7-9p7-9p7-9p7-|
A/-------------------------------------------------------------------------|
E/-------------------------------------------------------------------------|

-------------------------------------------------------------------------|
-------------------------------------------------------------------------|
-------------------------------------------------------------------------|
-9p7-9-9-7h9-7h9-9p7-9p7-9p7-9p7-9p7-9-9-7h9-7h9-9p7-9p7-9p7-9p7-9p7-9-9-|
-------------------------------------------------------------------------|
-------------------------------------------------------------------------|

-----------------------------------------------------------------------------|
-----------------------------------------------------------------------------|
-----------------------------------------------------------------------------|
-7h9-7h9-9p7-9p7-9p7-9p7-9p7-9-9-7h9-7h9-9p7-9p7-9p7-9p7-9p7-9-9-7h9-7h9-9p7-|
-----------------------------------------------------------------------------|
-----------------------------------------------------------------------------|

------------------------------------------------------------------------|
------------------------------------------------------------------------|
------------------------------------------------------------------------|
-9p7-9p7-9p7-9p7-9-9-7h9-7h9-9p7-9p7-9p7-9p7-9p7-9-9-9-9-9h10-9h10-9h10-|
------------------------------------------------------------------------|
------------------------------------------------------------------------|

------------------------------------------------------------------------|
------------------------------------------------------------------------|
------------------------------------------------------------------------|
-9p7-9p7-9p7-9-9-7h9-7h9-9p7-9p7-9p7-9p7-9p7-9-9-9-9-9h10-9h10-9h10-9p7-|
------------------------------------------------------------------------|
------------------------------------------------------------------------|

------------------------------------------------------------------------|
------------------------------------------------------------------------|
----------------------------------------------------------------------0-|
-9p7-9p7-9p7-9-9-7h9-7h9-9p7-9p7-9h10-9h10-9h10-9h10-9h10-9h10-9h10-9---|
------------------------------------------------------------------------|
------------------------------------------------------------------------|

Last Chorus
E/----------------------------------------|
B/----------------------------------------|
G/-9-9-9-9-9--5-5-5-5-5-------------------|
D/-9-9-9-9-9--5-5-5-5-5-5-5-5-5-5-x-2-2-2-|
A/-7-7-7-7-7--3-3-3-3-3-5-5-5-5-5-x-2-2-2-|
E/------------3-3-3-3---3-3-3-3-3-x-0-0-0-|

Lead in last chorus
E/--------------------7------|
B/-7b--5---5-----------------|
G/-------7---7---5--4---4--4-|
D/---------------------------|
A/---------------------------|
E/---------------------------|

Outro
E/---------------------------19----|
B/-19b--17----17---17--------------|
G/---------19---19----17--16----16-|
D/---------------------------------|
A/---------------------------------|
E/---------------------------------|

I'd like to close my eyes and go numb
But there's a cold wind coming from
The top of the highest high-rise today
It's not a breeze cause' it blows hard
Yes, and it wants me to discard the humanity I know
Watch the warmth blow away

Do you think I should adhere to that pressing new frontier?
And leave in my wake a trail of fear?
Or should I hold my head up high
And throw a wrench and spokes by
Leaving the air behind me clear?

Don't let the world bring you down
Not everyone here is that fucked up and cold
Remember why you came
And while you're alive
Experience the warmth before you grow old.
Tap to rate this tab
# A B C D E F G H I J K L M N O P Q R S T U V W X Y Z