Song name
# A B C D E F G H I J K L M N O P Q R S T U V W X Y Z

Incubus - Crowded Elevator tab

Help us improve GuitareTab! Take a short survey!
Tabbed by: Dhenokz



Intro

|-------------------------|
|-------------------------|
|-------------------------|  
|-----------------------0-|   2x
|------5---7b8--0-----5---|
|--0-0---0--------4-4-----|      

Distortion

|---------------------------------|
|---------------------------------|
|---------------------------------|  3x
|--2------------------------------|
|--2------5-------5-------7---7---|
|--0--------5-0-4---5-0-4---4-----|

|---0-0-0-0-0-0-------------|
|---5-5-5-5-5-5-------------|
|-----------------7---7-----|
|-2-------------5-7-5-7-2---|
|-2-------------5-5-5-5-2---|
|-0-------------3---3---0---|


Verse

|-------------------------|
|-------------------------|
|-------------------------|  
|-----------------------0-|                                                 
|------5---7b8--0-----5---| 
|--0-0---0--------4-4-----|  

Pre-Chorus  

|------------------------|
|------------------------|
|------------------------|
|--9-9-9-9-9-9-9-9-9-2-2-|  4x
|--7-7-7-7-7-7-7-7-7-2-2-|
|--------8-8-8-7-7-7-0-0-| 

|-------------------------|
|-------------------------|
|-------------------------|
|--9-9--------------7---7-|
|--7-7-5---7b8--0-5-5-5-5-|
|--------0--------3---3---|

Chorus

|----------------------0-0-0-0-0-5---------|
|----------------------5-5-5-5-5-5---------|
|------------------------------------------|
|--2-7-----9---7---7-----------------7---7-|
|--2-5-----7-6-5-6-5-5-------------5-5-5-5-|
|--0---5-0---4---4---3-------------3---3---|


Interlude

|--------------------------------|
|------8-----8-------11-------11-|
|----9-----9------12-------12----|
|--------------------------------|
|--7-----------10----------------|
|--------8--------------11-------|


Related for Crowded Elevator tab