Song name
# A B C D E F G H I J K L M N O P Q R S T U V W X Y Z

Incubus - New Skin tab

Verse

E|---------------------------------------|
B|--------------------13-----14----13-14-|
G|--11-11-11-11-11-11----12-----12-------|
D|---------------------------------------|
A|---------------------------------------|
E|---------------------------------------|

E|---------------------------------------|
B|--------------------13-----14----13-14-|
G|--11-11-11-11-11-11----12-----12-------|
D|---------------------------------------|
A|---------------------------------------|
E|---------------------------------------|

E|15----14----13----12----11-------------|
B|---14----13----12----11----10----------|
G|---------------------------------------|
D|---------------------------------------|
A|---------------------------------------|
E|---------------------------------------|


Tap to rate this tab
# A B C D E F G H I J K L M N O P Q R S T U V W X Y Z