Song name
# A B C D E F G H I J K L M N O P Q R S T U V W X Y Z

Incubus - Redefine tab

	     SONG: Redefine
	     BAND: Incubus
	    ALBUM: S.C.I.E.N.C.E. Track 1
   TRANSCRIBED BY: Phil Dimotsis ddimotsis@yahoo.com
	
Ive made a few changes to the other tab on here and this one is more correct and is  
easier than the other one but its right just beleive in me...haha have fun
TUNING: drop D (D,a,d,g,b,e)


INTRO: no hammer on's    build this part up so you can break out in the chorus part 
by slightly moving the volume upon your guitaror palm muting
    E|---------------------------------------------------|  
    B|---------------------------------------------------|
    G|---------------------------------------------------|
    D|---------------------------------------------------|
    A|--------------------------3------------------------|
    D|--0-4-0-4-0-4-0-4-0-4-0-4---h4-0-4-----------------|
      pm...............................................

      Chorus

     Play this once      

    E|-------------------|
    B|-------------------|
    G|-------------------|
    D|--0-0-0-0-3-3-3-3--|
    A|--0-0-0-0-3-3-3-3--|
    D|--0-0-0-0-3-3-3-3--|
      pm.......

     Then play this four times -this part goes fast so youll have to practice it

    E|---------------------------------|
    B|---------------------------------|
    G|---------------------------------|
    D|-0h-4-4-0h-4-4-4-4-0h-4---h4-0-4-|
    A|-0h-4-4-0h-4-4-4-4-0h-4-3-h4-0-4-|
    D|-0h-4-4-0h-4-4-4-4-0h-4---h4-0-4-|

     VERSE: flanger distortion  not sure about this part

    E|-------------------------------------------------|
    B|--15--15--15--15--13-13-13--9--9-9-9-10----------|
    G|------------------13-13-13--9--9-9-9-10----------|
    D|-------------------------------------------------|
    A|-------------------------------------------------|
    D|-------------------------------------------------|

     
     INTERLUDE: after bass solo
     
    E|-------------------------------------------------|
    B|-------------------------------------------------|
    G|-------------------------------------------------|
    D|-----6----6---------------//5--------------------|
    A|-------------------------------------------------|
    D|-------------------------------------------------|

Order: Intro Chorus Verse Chorus Verse Chorus Interlude Intro Chorus
Tap to rate this tab
# A B C D E F G H I J K L M N O P Q R S T U V W X Y Z