Song name
# A B C D E F G H I J K L M N O P Q R S T U V W X Y Z

Incubus - Are You In tab

Are you in? (Trip remix)(live)

Wow!!...Thats all i can say! My friend gave me this version of
"are you in" n its so nice. Its really different from the original,
but it still sounds really good. This tab is prolly not right, but to me it
sounds ok. There are some missing parts, but this tab was so ppl get a little bit of an 
Try it out! Criticize! Enjoy!
-743

Standard Tuning
-EADGBE

[NH]=Natural Harmonics - Strike  the note while lightly touching
                          over the fret indicated
/=slide

Intro

E---12------------9-----------5---------5------------------------|
B------10-----------7-----------2-------2------------------------|
G-9-------11----9-----6-----6-----2-----2------------------------|
D----------------------------------------------------------------|
A----------------------------------------------------------------|
E----------------------------------------------------------------|

Verse
(You have to listen to the song for timing)

           let ring---->         let ring----------------------------|
E----------[12]------------------|----------[12]-----------------5---|
B------------[12]--[7][7]--------|------------[12]-[12]---[7]---2----|
G--------------------------------|-----------------------------2-----|
D----[7]-------------------------|----[7]----------------------------|
A--[7]---------------------------|--[7]------------------------------|
E--------------------------------|-----------------------------------|

   let ring------------->        let ring----------------------------|
E-------------[12]--------------5|------------[12]---------------5---|
B------------[12]-[12]---[7]---2-|-----------[12]-[12]----[7]---2----|
G-----------------------------2--|-----------------------------2-----|
D---[7]--------------------------|--[7]------------------------------|
A--[7]-[7]-----------------------|-[7]-[7]---------------------------|
E--------------------------------|-----------------------------------|

Chorus

E---12------------9-----------5---------5------------------------|
B------10-----------7-----------2-------2-(strum down)-----------|
G-9-------11----9-----6-----6-----2-----2------------------------| (x4)
D----------------------------------------------------------------|
A----------------------------------------------------------------|
E----------------------------------------------------------------|

Solo (listen for timing)

E--9-9-9-5-5---5/9-5/9---5-4h5-4h5p4------|
B------------------------------------5----|
G--------------------------------------6--|
D-----------------------------------------|
A-----------------------------------------|
E-----------------------------------------|

---4-7-7h9-5-7-4/5-4h5p4h5p4h5p4---|
--5--------------------------------|
-6---------------------------------|
7----------------------------------|
-----------------------------------|
-----------------------------------|


--4/7-4-5-4h5p4h5p4h5-4-2h4-0-----4---5---4-2-|
------------------------------2-2---2---2---2-|little pause
--------------------------------------------2-|
----------------------------------------------|
----------------------------------------------|
----------------------------------------------|

----------------------------------------------|
--2-4-2-4/5-4-2h4-2---------------------------|
--2-4-2-----------2---------------------------|
----------------------------------------------|
----------------------------------------------|
----------------------------------------------|


Umm its ok if the solo bit makes no sense, cause i dunno how to
tab it so it makes sense. The '4h5p4h5p4h5' bits are supposed to
be done really quickly. I think they're called "thrill", where
you hammer on and pull off rapidly.

repeat verse
repeat chorus
bridge (will be added when i have the time)
outro (use chorus)

*well ill try to add the bits that i missed like the bridge
and the lil outro bits, but til then hope sum1 can tab a better
version.
Tap to rate this tab
# A B C D E F G H I J K L M N O P Q R S T U V W X Y Z