Guitaretab - guitar tabs
Song name
# A B C D E F G H I J K L M N O P Q R S T U V W X Y Z

Incubus - Trouble In 4 tab

INCUBUS
"Trouble in 421"

Intro
e---24/////////////////12---|
b---------------------------|
g---------------------------|
d---------------------------|
a---------------------------|
e---------------------------|

Main Riff

e------------------------------------17-x-17/------------|
b--------------------------------------------------------|
g----------------12b-------------------------------------|
d-14-x-x-x-12-x-x----14-x-x-x-12-x-x---------------------|
a----------13-----------------13-------------------------|
e--------------------------------------------------------|

Verse
[ Tab from: http://www.guitaretab.com/i/incubus/39792.html ]
e---------------------------------------------------------17-x-17/--|
b-------------------------------------------------------------------|
g--------------------------------12b--------------------------------|
d-17-17-17/-14----------12-----------14----------12-----------------|
a-17-17-17/-14-14-14-14-13-14 14-----14-14-14-14-13-14-14-----------|
e-15-15-15/-12-12-12-12----12-12-----12-12-12-12----12-12-----------|

Chorus
e------------------------------------------|
b------------------------------------------|
g-------7^---------------------15-15-15----|
d---7-7-7^---7-7-7---14-14-14---x--x--x----|
a---7-7-5^---7-7-7---x--x--x----13-13-13---|
e---5-5------5-5-5---12-12-12--------------|

Chorus
e------------------------------|
b------------------------------|
g---15-15-15-x---15-15-15-x----|
d------------------------------|
a------------------------------|
e------------------------------|

e---------------------------------------|
b---------------------------------------|
g---9/------------7-7-9-----------------|
d---9/------------7-7-9-----------------|
a---7/------------5-5-7-----------------|
e---0----0-0-0-0-0----0-0-0-0-0-0-0-0---|
Related for Trouble In 4 tab
Advertisement will be closed in 10 seconds