Song name
# A B C D E F G H I J K L M N O P Q R S T U V W X Y Z

Incubus - Wish You Were Here Live tab

Tabbed by marcus lubbock
Song - wish you were here
Artist - incubus
Album - morning view
Tuning: Standard

Song Progression:
Intro (2x)
Chorus (4x)
Verse (4x)
Chorus (4x)
Verse (4x)
Chorus (4x)
Bridge (4x)
Intro (2x)
Chorus (4x)
Ending (1x)

-0--0-0-0-0--0--0-0-0-0------------------0-|---------------------------------|
-0--0-0-0-0--0--0-0-0-0------------------0-|---------------------------------|
-4--4-4-4-4--4--4-4-4-4------------------4-|-9/-11---------------------------|
-2--2-2-2-2--2--2-2-2-2--4--4-4-4/-7---2-2-|-x/-x----------------------------|
-0--0-0-0-0--2--2-2-2-2--4--4-4-4/-7---2-2-|-7/-9----------------------------|
-------------0--0-0-0-0--2--2-2-2/-5---0---|---------------------------------|
 Intro (clean)                               last time
-0--0-0-0-0--0--0-0-0-0--------------------------------------------------------|
-0--0-0-0-0--0--0-0-0-0--------------------------------------------------------|
-4--4-4-4-4--4--4-4-4-4--------------------------------------------------------|
-2--2-2-2-2--2--2-2-2-2--4--4-4-4/-7--2-2--------------------------------------|
-0--0-0-0-0--2--2-2-2-2--4--4-4-4/-7--2-2--------------------------------------|
-------------0--0-0-0-0--2--2-2-2/-5--0-0--------------------------------------|
 Chorus (distortion)

--------------------------12-------------------------------------------------|
---7---7---7-----------------9h10--------------------------------------------|
-9---9---9---6---------11----------------------------------------------------|
------------------9h11-------------------------------------------------------|
-----------------------------------------------------------------------------|
-----------------------------------------------------------------------------|
 Verse (delay & reverb)

-----------------------------------------------------------------------------|
---7---7---7-------------9------------7-7------------------------------------|
-9---9---9---6---------9---11-9-11-9--9-9------------------------------------|
------------------9h11-------------------------------------------------------|
-----------------------------------------------------------------------------|
-----------------------------------------------------------------------------|


-0----------------------------------------------------------------------------|
-0----------------------------------------------------------------------------|
-2----------------------------------------------------------------------------|
-2----------------------------------------------------------------------------|
-0----------------------------------------------------------------------------|
-0----------------------------------------------------------------------------|
 Bridge (phaser)

-----------------------------------------------------------------------------|
-----------------------------------------------------------------------------|
-----------------------------------------------------------------------------|
-7---------------------------------------------------------------------------|
-7---------------------------------------------------------------------------|
-5---------------------------------------------------------------------------|
 Ending (last chord at the end of the song) let ring...
Tap to rate this tab
# A B C D E F G H I J K L M N O P Q R S T U V W X Y Z