Guitaretab - guitar tabs
Song name
# A B C D E F G H I J K L M N O P Q R S T U V W X Y Z

Incubus - A Crow Left Of The Murder Acoustic tab

Incubus - A Crow Left of the Murder (Acoustic)
Album: A Crow Left of the Murder
Tabbed by: KillTHESystem (1/20/04)

This tab is the whole song. Tabbed from the Bridge School Show. Comments are
appreciated.

Standard Tuning

Verse
E|----------------------------------------------------------------
B|----------------------------------------------------------------
G|----------------------------------------------------------------  X2
D|--------9-------9\----------------------------------------------
A|---9-11----11-9-11\---------2-----------------------------------
E|-0--------------------0-2-4---4-2-4-----------------------------



E|----------------------------------------------------------------
B|----------------------------------------------------------------
G|----------------------------------------------------------------
D|--------13-------13\--------------------------------------------
A|---9-11-----11-9-11\---------6----------------------------------
E|-0---------------------0-2-4---4-2-4----------------------------



E|-------------------------------
B|-------------------------------
G|-------------------------------
D|--------9-------9\-----4--444-2
A|---9-11----11-9-11\---040-444-2
E|-0--------------------020-222-0

Chorus
E|-5--5-55--5-5--7-77--
B|-5--5-55--5-5--7-77--
G|-4--4-44-X7-7--8-88--
D|-5--5-55-X7-7-X7-77-- X4
A|-5--5-55-X5-5-X9-99--
E|-3--3-33-X5-5-X7-77--

Verse
Chorus X2
[ Tab from: http://www.guitaretab.com/i/incubus/47549.html ]
Bridge
E|----------------------------------------------------------------
B|----------------------------------------------------------------
G|-444444444444/777777777777-444444444444--2---4---5---4-5-4-2----
D|-XXXXXXXXXXXX-XXXXXXXXXXXX-XXXXXXXXXXXX--0---0---0---0-0-0-0----
A|-222222222222/555555555555-222222222222-------------------------
E|-000000000000-XXXXXXXXXXXX-333333333333-------------------------

Listen For Rythem
Last Part of Bridge during Vocal Harmony
E|--0--0--0--0--0--0--0--0--0--0--0--0--0--0--0--0----------------
B|--0--0--0--0--0--0--0--0--0--0--0--0--0--0--0--0----------------
G|--12-12-12-12-12-12-12-12-12\10-10-10-10-10-10-10---------------
D|--X--X--X--X--X--X--X--X--X--X--X--X--X--X--X--X----------------
A|--10-10-10-10-10-10-10-10-10\8--8--8--8--8--8--8----------------
E|----------------------------------------------------------------

Verse

Outro (almost same as verse)
E|----------------------------------------------------------------
B|----------------------------------------------------------------
G|----------------------------------------------------------------
D|------13-------13-------13-------13-------13-------13-------13--
A|-9-11-11--9-11-11--9-11-11--9-11-11--9-11-11--9-11-11--9-11-11--
E|------------------------------------------0-----------------0---



E|----------------------------------------------------------------
B|----------------------------------------------------------------
G|----------------------------------------------------------------
D|------13-------13-------13-------13----4--444-2-----------------
A|-9-11-11--9-11-11--9-11-11--9-11-11---040-444-2-----------------
E|------0--------0--------0--------0----020-222-0-----------------

That the whole song. Its s great song and look forward to hearing the
real version on the record.
Related for A Crow Left Of The Murder Acoustic tab
×
Best way to learn
"A Crow Left Of The Murder Acoustic"