Song name
# A B C D E F G H I J K L M N O P Q R S T U V W X Y Z

Incubus - Made For Tv Movie tab

^   Bend
h   Hammer On
( ) Return to Original note
/   Slide
X   Mute


slightly dirty
e|----------------------------------------------|
b|---------0----------0-------------------------|
g|---0------0------0---0------------------------|
d|--2-2------5----2-2---------------------------|
a|-3----------6--3--------5---------------------|
E|-----------------------6----------------------|


Distortion
e|-----------------------------------------|
b|-----------------------------------------|
g|-44444444----------555555555---7-7-------|
d|-33333333-22222222-555555555---7-7--8-8^-|
a|-33333333-22222222-333333333---5-5--8-8^-|
E|-55555555-00000000-333333333--------6-6^-|


w/lesie pedal or chorus

e|---5/7-12/7-5-5/7-10/3/5 5/7-12/7------------------------------|
b|---------------------------------10-8 10-8-10-7h8-7-7----------|
g|---------------------------------------------------9--7-9-7/9--|
d|---------------------------------------------------------------|
a|---------------------------------------------------------------|
E|---------------------------------------------------------------|


slightly dirty
e|--------------------------|
b|---------0---------0------|
g|---0------0-----0---0-----|
d|--2-2------5---2-2--------|
a|-3----------6-3--------5--|
E|----------------------6---|


Distortion
e|-----------------------------------------|
b|-----------------------------------------|
g|-44444444----------555555555---7-7-------|
d|-33333333-22222222-555555555---7-7--8-8^-|
a|-33333333-22222222-333333333---5-5--8-8^-|
E|-55555555-00000000-333333333--------6-6^-|


Distortion (palm muted)
e|------------------------------------------|
b|------------------------------------------|
g|-44444444----------555555555---7-7--------|
d|-33333333-22222222-555555555---7-7--8-8^--|
a|-33333333-22222222-333333333---5-5--8-8^--|
E|-55555555-00000000-333333333--------6-6^--|


Bridge
e|-------------------------------------------000-|
b|-------------------------------------------000-|
g|--0-------------------0--------------------000-|
d|--x-------------------x--------------------555-|
a|--3^(3)-1-------1-----3-3^(3)-1------1-----444-|
E|----------3-0-3---3-0----------3-0--3--3-0-555-|


"We built your young..."              "You all!"
e|------------------------------------------000000-|
b|------------------------------------------000000-|
g|---5^(5)-3-----3---5--5^(5)-3-----3-------000000-|
d|----------5-2-5-5-2----------5-2-5-5-2----555555-|
a|------------------------------------------444444-|
E|------------------------------------------555555-|


(not exact rythm)
e|--------3-3------------------6----------|
b|--------3-3--0-0---55---5-77-6----------|
g|--------4-4--1-1---55---5-77-7----------|
d|--------5-5--2-2---55-5---77-8----------|
a|----------5--2---33-3-3---55-8----------|
E|--xx3-3---3-0-0--------------6----------|
Tap to rate this tab
# A B C D E F G H I J K L M N O P Q R S T U V W X Y Z