Guitaretab - guitar tabs
Song name
# A B C D E F G H I J K L M N O P Q R S T U V W X Y Z

Incubus - Smile Lines tab

smile lines							tab by max

starts with strumming of:

-------------------------|
-------------------------|
-----7-------------------|
-----7-------------------|
-----5-------------------|
-------------------------|

intro riff

------------------------------------------------------|
------------------------------------------------------|
------------------------------------------------------|
--------------------0-0-------------------------------|
--0-0---------0-0---------0-0---------0-0-----4-4-----|
------0-2-0-0----0-2----0-----0-2-0-0-----0-2-----0---| (not sure about last part)

verse

----------------------------------------------|
-------0--------7h8p7----0--7h8-7h8-7h8p7-----|
----5----5----5--------5--5-------------------|
--7---7------7--------7-7---------------------|
----------------------------------------------|
----------------------------------------------|

last part of verse 'you were meant...'
[ Tab from: http://www.guitaretab.com/i/incubus/47619.html ]
--------------------------------------|
-----0----7---------------------------|
---5--5---5---------------------------|
--7-7-----7---------------------------| (strum last chord repeatedly)
--------------------------------------|
--------------------------------------|

chorus (chords) 'i want you bad...'

----------------------------|
----------------------------|
--5-4-6-5--4-6--5-4-6-2--7--|
--5-5-7-5--5-7--5-5-7-3--7--|
--3-5-7-3--5-7--3-5-7-3--5--|
----3-5----3-5----3-5-1-----|

bit after pause (chords)

----------------|
----------------|
--5-----7-------|
--5-6-3-7-------|
--3-6-3-5-------|
----4-1---------|

solo

--------------------------------------------------------|
--------------------------------------5-3---------------|
-------------7-5-5-7-8-7-5-7-7-5-5---5------------------|
---7p5-5-5h7--------------------7-7-7-------------------|
--------------------------------------------------------|
--------------------------------------------------------|

--11-11p10---10---10-11p10--8-------------------17------17171717-|
-----------13--13----------9-10-8-10-10-8-10-10---17-16-17171717-|
-----------------------------------------------------------------|
-----------------------------------------------------------------|
-----------------------------------------------------------------|
-----------------------------------------------------------------|
Related for Smile Lines tab
Smile Lines chords by Incubus