Song name
# A B C D E F G H I J K L M N O P Q R S T U V W X Y Z

Incubus - Make A Move tab

title: make a move
tabed by: ryan elfa


Intro x2
e|------------------|------------------|------------------|-------------------|
b|------------------|------------------|------------------|-------------------|
g|------------------|------------------|------------------|-------------------|
d|-----------x--5---|-----------x--5---|-----------x--5---|-----7/9-9-9--x-2--|
a|----7-5-7--x--5---|--5-7-5-7--x--5---|--5-7-5-7--x--5---|-----5/7-7-7--x-2--|
e|-----------x--3---|-----------x--3---|-----------x--3---|--------------x-0--|

   Verse  4x   (I'm at the end...)
e|------------------|------------------|------------------|-------------------|
b|------------------|------------------|------------------|-------------------|
g|------------------|------------------|------------------|-----7/9-9-9-------|
d|-----------x--2---|-----------x--5---|-----------x--2---|--0--x-x-x-x--x-5--|
a|--5-7-5-7--x--2---|--5-7-5-7--x--5---|--5-7-5-7--x--2---|-----5/7-7-7--x-5--|
e|-----------x--0---|-----------x--3---|-----------x--0---|--------------x-3--|

   Pre Chorus
e|-------------------|-------------------|----------------------------|
b|-------------------|-------------------|----------------------------|
g|-------------------|-------------------|----------------------------|
d|--7-7-7-7-7-7-7-7--|--7-7-7-7-7-7-7-7--|--9--5--7--9--5--7--9--5-7--|
a|--7-7-7-7-7-7-7-7--|--7-7-7-7-7-7-7-7--|--9--5--7--9--5--7--9--5-7--|
e|--5-5-5-5-5-5-5-5--|--5-5-5-5-5-5-5-5--|--7--3--5--7--3--5--7--3-5--|

e|-------------------|-------------------|-------------------|
b|-------------------|-------------------|-------------------|
g|-------------------|-------------------|----------7-~-~-~--|
d|--7-7-7-7-7-7-7-7--|--7-7-7-7-7-7-7-7--|--9-5-2-5-7-~-~-~--|
a|--7-7-7-7-7-7-7-7--|--7-7-7-7-7-7-7-7--|--9-5-2-5-5-~-~-~--|
e|--5-5-5-5-5-5-5-5--|--5-5-5-5-5-5-5-5--|--7-3-0-3-5-~-~-~--|

   Chorus same as intro   2x  (Make a move....)
e|------------------|------------------|------------------|-------------------|
b|------------------|------------------|------------------|-------------------|
g|------------------|------------------|------------------|-------------------|
d|-----------x--5---|-----------x--5---|-----------x--5---|-----7/9-9-9--x-2--|
a|----7-5-7--x--5---|--5-7-5-7--x--5---|--5-7-5-7--x--5---|-----5/7-7-7--x-2--|
e|-----------x--3---|-----------x--3---|-----------x--3---|--------------x-0--|

   Bridge 3x
e|--------------7-----------7-----------------12-----------------12---------------|
b|----5------5------5-----5----------10----10---------10-------10----10-----------|
g|--7---7-7------7---7-7------7-/-12----12------12-12----12-12-----------12-/-17--|
d|--------------------------------------------------------------------------------|
a|--------------------------------------------------------------------------------|
e|--------------------------------------------------------------------------------|

-----------17--------------------------17-------------------------------19----------------------19-----------|
--15----15----15----15----15--------15----15----15-----------17-----17-----17----17--17----17------17----17--|
-----17----------17----17-----17-17----------17-----17-/--19-----19-----------19--------19------------19-----|
-------------------------------------------------------------------------------------------------------------|
-------------------------------------------------------------------------------------------------------------|
-------------------------------------------------------------------------------------------------------------|

   Pre Chorus

e|-------------------|-------------------|----------------------------|
b|-------------------|-------------------|----------------------------|
g|-------------------|-------------------|----------------------------|
d|--7-7-7-7-7-7-7-7--|--7-7-7-7-7-7-7-7--|--9--5--7--9--5--7--9--5-7--|
a|--7-7-7-7-7-7-7-7--|--7-7-7-7-7-7-7-7--|--9--5--7--9--5--7--9--5-7--|
e|--5-5-5-5-5-5-5-5--|--5-5-5-5-5-5-5-5--|--7--3--5--7--3--5--7--3-5--|

e|-------------------|-------------------|-------------------|
b|-------------------|-------------------|-------------------|
g|-------------------|-------------------|----------7-~-~-~--|
d|--7-7-7-7-7-7-7-7--|--7-7-7-7-7-7-7-7--|--9-5-2-5-7-~-~-~--|
a|--7-7-7-7-7-7-7-7--|--7-7-7-7-7-7-7-7--|--9-5-2-5-5-~-~-~--|
e|--5-5-5-5-5-5-5-5--|--5-5-5-5-5-5-5-5--|--7-3-0-3-5-~-~-~--|

   Chorus/outro  4x
e|------------------|------------------|------------------|--------------------|
b|------------------|------------------|------------------|--------------------|
g|------------------|------------------|------------------|--------------------|
d|-----------x--5---|-----------x--5---|-----------x--5---|-----7/9-9-9--x-2~~~|
a|----7-5-7--x--5---|--5-7-5-7--x--5---|--5-7-5-7--x--5---|-----5/7-7-7--x-2~~~|
e|-----------x--3---|-----------x--3---|-----------x--3---|--------------x-0~~~|
Tap to rate this tab
# A B C D E F G H I J K L M N O P Q R S T U V W X Y Z