Song name
# A B C D E F G H I J K L M N O P Q R S T U V W X Y Z

Incubus - Second Movement Of The Odyssey tab

Help us improve GuitareTab! Take a short survey!
                   SECOND MOVEMENT OF THE ODYSSEY - INCUBUS
-------------------------------------------------------------------------------------------------|
Tabbed by:Zach Wells
Email:Wired25R@aol.com

Tuning:EADGBe


Okay, since someone already did the tab for the real intro, i decided to do the tab on
biggning part.... some of the hard licks, but not the crazy insane ones. So here are a
of them (oh, and most of these are right, but some might not be):

Repeating lick at 1:50

e|--10-8-7------------------------10--|
B|---------8---10-----10--------------|
G|-----------8----7-8------8-8---8----|
D|-----------------------7------------|
A|------------------------------------|
E|------------------------------------| (x7)

Then at 2:04 it does this
e|--10-8-7----------------------------|
B|-----------9-8-7--------------------|
G|---------8-------8-10-9-8-----------|
D|---------------------------8-11-10--|
A|------------------------------------|
E|------------------------------------|

Now, this they do this at 2:06
e|---------------------------------------------------x-x-x-x-x--|
B|---------------------------------------------------x-x-x-x-x--|
G|---------------------------------------------------x-x-x-x-x--|
D|---------------------------------------------------x-x-x-x-x--|
A|-6-5--5-5-5-5-5-5-5--5-5-5-5-5-5-5--5-5-5-5-5-5-5--x-x-x-x-x--|
E|-4-3--0-3-0-3-0-3-3--0-3-0-3-0-3-3--0-3-0-3-0-3-3--x-x-x-x-x--| (x4)

AND THEN this at 2:22
e|-x-x--x-x-x-x-x-x-x--x-x-x-x-x-x-x--x-x-x-x-x-x-x--x-x-x-x-x--|
B|-6-6--6-6-6-6-6-6-6--6-6-6-6-6-6-6--6-6-6-6-6-6-6--x-x-x-x-x--|
G|-8-8--8-8-8-8-8-8-8--8-8-8-8-8-8-8--8-8-8-8-8-8-8--x-x-x-x-x--|
D|-x-x--x-x-x-x-x-x-x--x-x-x-x-x-x-x--x-x-x-x-x-x-x--x-x-x-x-x--|
A|-5-5--5-5-5-5-5-5-5--5-5-5-5-5-5-5--5-5-5-5-5-5-5--x-x-x-x-x--|
E|-4-3--0-3-0-3-0-3-3--0-3-0-3-0-3-3--0-3-0-3-0-3-3--x-x-x-x-x--| (x4)

now the infamous licks at 2:39
e|------------------------------------------------------------------|
B|------------------------------9-----------------------------------|
G|---------------9-10-9---------8---------------9-10-9----------8---|
D|--------7-8-10--------11-10-8----------7-8-10--------11-10-8--7---|
A|-7-8-10-------------------------7-8-10----------------------------|
E|------------------------------------------------------------------|

e|---------------------------------9-8-7--------------------|-----|-----|
B|------------------------------9------------9-8-7-8-9-8----|-----|-----|
G|---------------9-10-9---------8--------7-8-------------9--|8-7-6|-x/8-|
D|--------7-8-10--------11-10-8----------------------------9|-----|-x/9-|
A|-7-8-10---------------------------------------------------|-----|-----|
E|----------------------------------------------------------|-----|-----|x2
                                                             ^1stx ^2ndx


Then this thing at 2:56
e|--------------x-x--------|
B|--------------x-x-7-7-7--|
G|-444444444444-x-x-7-7-7--|
D|-555555555555-x-x-x-x-x--|
A|-555555555555-x-x-5-5-5--|
E|-333333333333-x-x--------| x4

now the infamous licks AGAIN at 3:12
e|------------------------------------------------------------------|
B|------------------------------9-----------------------------------|
G|---------------9-10-9---------8---------------9-10-9----------8---|
D|--------7-8-10--------11-10-8----------7-8-10--------11-10-8--7---|
A|-7-8-10-------------------------7-8-10----------------------------|
E|------------------------------------------------------------------|

e|---------------------------------9-8-7--------------------|-----|-------|
B|------------------------------9------------9-8-7-8-9-8----|-----|-------|
G|---------------9-10-9---------8--------7-8-------------9--|8-7-6|-x8----|
D|--------7-8-10--------11-10-8----------------------------9|-----|-x9----|
A|-7-8-10---------------------------------------------------|-----|-------|
E|----------------------------------------------------------|-----|-------|x2
                                                             ^1stx ^2ndx

Then this thing AGAIN at 3:28
e|--------------x-x--------|
B|--------------x-x-7-7-7--|
G|-444444444444-x-x-7-7-7--|
D|-555555555555-x-x-x-x-x--|
A|-555555555555-x-x-5-5-5--|
E|-333333333333-x-x--------| x4


Now, this other thing at 3:45
e|----------------11-11-11-11-11-11-11-11-11-11-11-11-11-11-11-11---|
B|-0-1-0----------12-12-12-12-12-12-12-12-12-12-12-12-12-12-12-12---|
G|-------2-0-2------------------------------------------------------|
D|------------------------------------------------------------------|
A|------------------------------------------------------------------|
E|-------------0~---------------------------------------------------|

e|----------------11-11-11-11-11-11-11-11-11-11-11-11--9--9--9--9---|
B|-0-1-0----------12-12-12-12-12-12-12-12-12-12-12-12--12-12-12-12--|
G|-------2-0-2------------------------------------------------------|
D|------------------------------------------------------------------|
A|------------------------------------------------------------------|
E|-------------0~---------------------------------------------------|

e|----------------11-11-11-11-11-11-11-11-12-12-12-12-12-12-12-12---|
B|-0-1-0----------12-12-12-12-12-12-12-12-12-12-12-12-12-12-12-12---|
G|-------2-0-2------------------------------------------------------|
D|------------------------------------------------------------------|
A|------------------------------------------------------------------|
E|-------------0~---------------------------------------------------|

e|----------------11-11-11-11-11-11-11-11-12-12-12-12-12-12-12-12---|
B|-0-1-0----------12-12-12-12-12-12-12-12-12-12-12-12-12-12-12-12---|
G|-------2-0-2------------------------------------------------------|
D|------------------------------------------------------------------|
A|------------------------------------------------------------------|
E|-------------0~---------------------------------------------------|

Then this starts at 4:01
e|---------------------|
B|-------------------2-|
G|-0-2-2--000000000--2-|
D|---------------------|
A|------0~-------------|
E|---------------------|(x8)


The last part im gonna tab... 4:17
e|--------------------------------------------------2~-------|
B|------------------------------------------6-66-6--3~-------|
G|--------5------5-8-5--5----------5---5/7----------4~-------|
D|--5-6-8---5-6-8------8--7-5--5/7---5--------------4~-------|
A|--------------------------------------------------2~-------|
E|--------------------------------------------------2~-------|


| /  slide up
|   slide down
| h  hammer-on
| p  pull-off
| ~  LET IT RING
| +  harmonic
| x  Mute note

OKAY well, that's all i have time to try to figure right now......

if some if that isnt right ( which i know some isnt ) and you find a better way to play 
feel free to email me: Wired25R@aol.com

I hope you enjoy my crappy interpretation of this song!

=)
Related for Second Movement Of The Odyssey tab