Song name
# A B C D E F G H I J K L M N O P Q R S T U V W X Y Z

Incubus - Third Movement Of The Odyssey tab

---------------------------------------------------------------------------
3rd Movement of the Odyssey - Incubus
---------------------------------------------------------------------------
Tabbed by: The Scarp
Email: The_Scarp@yahoo.com

Standard Tuning

So, this is the second part of the 3rd Movement, after the
part. It's not much, but it's part. I'm not totally sure about the last part, so I won't 
it up until I am. But,
someone else can take this and run with it. Anyways, enjoy!


E |-------------------------------0----------------------------------|
B |-------0-----------------0-----------------0-----------------0----|
G |----5-----5-----5-----5-----5-----------5-----5-----5-----5-----5-|
D |-3-----------3-----3-----------------3-----------3-----3----------|
A |------------------------------------------------------------------|
E |------------------------------------------------------------------|

E |---
B |---
G |---
D |-3-
A |---
E |---x2

e |---------------------------------------------------------|
B |----------0-----------------0--------------------0-------|
G |-------0-----0-----0-----0-----0--------------0-----0----|
D |-3-/1-----------1-----1-----------1--0-----5-----------5-|
A |----------------------------------------3----------------|
E |---------------------------------------------------------|

e |------------------|
B |----------0-------|
G |-------0-----0----|
D |----5-----------5-|
A |-3----------------|
E |------------------|

e |-------------------------------0----------------------------------|
B |-------0-----------------0-----------------0-----------------0----|
G |----5-----5-----5-----5-----5-----------5-----5-----5-----5-----5-|
D |-3-----------3-----3-----------------3-----------3-----3----------|
A |------------------------------------------------------------------|
E |------------------------------------------------------------------|

e |---------------------------------------------------------|
B |----------0-----------------0--------------------0-------|
G |-------0-----0-----0-----0-----0--------------0-----0----|
D |-3-/1-----------1-----1-----------1--0-----5-----------5-|
A |----------------------------------------3----------------|
E |---------------------------------------------------------|


e |------------------------------------------------------------------|
B |----------0-----------------0-----------------0--------0--0--0--0-|
G |-------0-----0-----------2-----2-----------2-----2-----2--2--2--2-|
D |----5-----------5-----4-----------4-----4-----------4--4--4--4--4-|
A |-3-----------------2-----------------2-----------------2--2--2--2-|
E |------------------------------------------------------------------|

e |------------------|
B |-0--0--0--0--0--0-|
G |-2--2--2--2--2--2-|
D |-4--4--4--4--4--4-|
A |-2--2--2--2--2--2-|
E |------------------|

e |-0--|--0--|--0--|--0-|-0--|--0--|--0--|----|
B |-0--|--0--|--0--|--0-|-0--|--0--|--0--|--2-|
G |-0--|--2--|--0--|--2-|-0--|--2--|--1--|--3-|
D |-2--|--2--|--0--|--2-|-0--|--2--|--2--|--2-|
A |-2--|--2--|--2--|--2-|-2--|--2--|--2--|--0-|
E |-0--|--0--|--2--|--0-|-2--|--0--|--0--|--0-|

Play the whole thing one more time, and you got it!
Tap to rate this tab
# A B C D E F G H I J K L M N O P Q R S T U V W X Y Z