Song name
# A B C D E F G H I J K L M N O P Q R S T U V W X Y Z

Incubus - Anna Molly tab

-------------------------------------------------------------------------------
			     ANNA MOLLY - Incubus
-------------------------------------------------------------------------------
Tabbed by: Michael (Scrubs)
Email: mglass92@googlemail.com

Tuning: Standard

Intro: 0:00

Guitar 1
                                               
e|----------------------------------------------------------------------------------|
B|-44444444-4444---------------------9-9-9---44444444-4444--------------------------|
G|-55555555-5555-8888--55555555-x888/101010--55555555-5555-8888--55555555------4444-|
D|-55555555-5555-8888--66666666-x888/101010--55555555-5555-8888--66666666-3333-5555-|
A|-35555555-3333-6666--66666666-x666/8-8-8---35555555-3333-6666--66666666-3333-5555-|
E|---------------------44444444----------------------------------44444444-1111-3333-|
 
0:13                                               
e|----------------------------------------------------------------------------------|
B|-44444444-4444---------------------9-9-9---44444444-4444--------------------------|
G|-55555555-5555-8888--55555555-x888/101010--55555555-5555-8888--55555555------4444-|
D|-55555555-5555-8888--66666666-x888/101010--55555555-5555-8888--66666666-3333-5555-|
A|-35555555-3333-6666--66666666-x666/8-8-8---35555555-3333-6666--66666666-3333-5555-|
E|---------------------44444444----------------------------------44444444-1111-3333-|
        
Guitar 2 (While Guitar 1 is on 2nd Line)

0:13
e|-33333333-3333-6666--33333333-44444444-----33333333-3333-6666--33333333-44444444--|
B|----------------------------------------------------------------------------------|
G|----------------------------------------------------------------------------------|
D|----------------------------------------------------------------------------------|
A|----------------------------------------------------------------------------------|
E|----------------------------------------------------------------------------------|

Pre-Verse (Post Chorus): 0:26

Guitar 1

e|-----------------------------------------------------|
B|-----------------------------------------------------|
G|-----------------------------------------------------|
D|-55555--3---------7----55555--33333---------77777----| x2
A|-33333--1--55555--5----33333--11111--55555--55555----|
E|-----------33333---------------------33333-----------|

Guitar 2 

e|-----------------------------------------------------------------------|
B|-----------------------------------------------------------------------|
G|-8-8-8-8-8---7-------------------8-8-8-8-8---77777---------------------|
D|-1010101010--8--8-8-8-8-8---8----1010101010--88888--8-8-8-8-8--88888---| x2
A|----------------1010101010--6-----------------------1010101010-66666---|
E|-----------------------------------------------------------------------|

Verse: 0:36

Guitar 2 

e|-----------------10----10-------------|
B|------8-11-8--------------------8-11--|
G|----8-------------------------8-------| 
D|-10-----------10----10-----10---------| x8
A|--------------------------------------|
E|--------------------------------------|

Chorus: 1:03

Guitar 1 

e|----------------------------------------------------------------------------------|
B|-44444444-4444---------------------9-9-9---44444444-4444--------------------------|
G|-55555555-5555-8888--55555555-x888/101010--55555555-5555-8888--55555555------4444-|
D|-55555555-5555-8888--66666666-x888/101010--55555555-5555-8888--66666666-3333-5555-|
A|-35555555-3333-6666--66666666-x666/8-8-8---35555555-3333-6666--66666666-3333-5555-|
E|---------------------44444444----------------------------------44444444-1111-3333-|
  
Guitar 2 

e|-33333333-3333-6666--33333333-44444444-----33333333-3333-6666--33333333-44444444--|
B|----------------------------------------------------------------------------------|
G|----------------------------------------------------------------------------------|
D|----------------------------------------------------------------------------------|
A|----------------------------------------------------------------------------------|
E|----------------------------------------------------------------------------------|
   
Post Chorus: 1:16

Guitar 1

e|-----------------------------------------------------|
B|-----------------------------------------------------|
G|-----------------------------------------------------|
D|-55555--3---------7----55555--33333---------77777----| 
A|-33333--1--55555--5----33333--11111--55555--55555----|
E|-----------33333---------------------33333-----------|

Guitar 2 

e|-----------------------------------------------------------------------|
B|-----------------------------------------------------------------------|
G|-8-8-8-8-8---7-------------------8-8-8-8-8---77777---------------------|
D|-1010101010--8--8-8-8-8-8---8----1010101010--88888--8-8-8-8-8--88888---|
A|----------------1010101010--6-----------------------1010101010-66666---|
E|-----------------------------------------------------------------------|

 Verse: 1:22

Guitar 2 
 _______________________________________
|            Palm Muted                 |

e|-----------------10----10-------------|
B|------8-11-8--------------------8-11--|
G|----8-------------------------8-------| 
D|-10-----------10----10-----10---------| x4
A|--------------------------------------|
E|--------------------------------------|
                     
e|-----------------10----10-------------|
B|------8-11-8--------------------8-11--|
G|----8-------------------------8-------| 
D|-10-----------10----10-----10---------| x4
A|--------------------------------------|
E|--------------------------------------|

Chorus: 1:47

Guitar 1 

e|----------------------------------------------------------------------------------|
B|-44444444-4444---------------------9-9-9---44444444-4444--------------------------|
G|-55555555-5555-8888--55555555-x888/101010--55555555-5555-8888--55555555------4444-|
D|-55555555-5555-8888--66666666-x888/101010--55555555-5555-8888--66666666-3333-5555-|x2
A|-35555555-3333-6666--66666666-x666/8-8-8---35555555-3333-6666--66666666-3333-5555-|
E|---------------------44444444----------------------------------44444444-1111-3333-|
  
Guitar 2 

e|-33333333-3333-6666--33333333-44444444-----33333333-3333-6666--33333333-44444444--|
B|----------------------------------------------------------------------------------|
G|----------------------------------------------------------------------------------|
D|----------------------------------------------------------------------------------|x2
A|----------------------------------------------------------------------------------|
E|----------------------------------------------------------------------------------|
   
Bridge: 2:12

Guitar 1  

e|---------------------------------|
B|---------------------------------|
G|---------4~---44---------4~---xx-|
D|-6~---88-5~---55-6~---88-5~---xx-| x2
A|-3~---88-5~---55-3~---88-5~---xx-|
E|-4~---66-3~---33-4~---66-3~---xx-|

Guitar 2 

Still need to tab...

Post Bridge: 2:38

Guitar 1 and 2 (Alternative Strumming)

e|----------------------------------------------|
B|-4-4-4-------4-4-4----9----4-4----------------|
G|-5-5-5--8-8--5-5-5--8-10---5-5--8-8--5-7------|
D|-5-5-5--8-8--5-5-5--8-10---5-5--8-8--6-8--3-3-| x3
A|-3-3-3--6-6--3-3-3--6-8----3-3--6-6--6-8--3-3-|
E|-------------------------------------4-6--1-1-|

Pre-Chorus (4): 2:57

Guitar 1, Clean (Volume Low)

e|----------------------------------------------------------------------------------|
B|-44444444-4444---------------------9-9-9---44444444-4444--------------------------|
G|-55555555-5555-8888--55555555-x888/101010--55555555-5555-8888--55555555------4444-|
D|-55555555-5555-8888--66666666-x888/101010--55555555-5555-8888--66666666-3333-5555-|
A|-35555555-3333-6666--66666666-x666/8-8-8---35555555-3333-6666--66666666-3333-5555-|
E|---------------------44444444----------------------------------44444444-1111-3333-|
  
Chorus 4(i): 3:09

Guitar 1 

e|----------------------------------------------------------------------------------|
B|-44444444-4444---------------------9-9-9---44444444-4444--------------------------|
G|-55555555-5555-8888--55555555-x888/101010--55555555-5555-8888--55555555------4444-|
D|-55555555-5555-8888--66666666-x888/101010--55555555-5555-8888--66666666-3333-5555-|
A|-35555555-3333-6666--66666666-x666/8-8-8---35555555-3333-6666--66666666-3333-5555-|
E|---------------------44444444----------------------------------44444444-1111-3333-|
  
Chorus 4(ii): 3:22

Guitar 1 

e|----------------------------------------------------------------------------------|
B|-44444444-4444---------------------9-9-9---44444444-4444--------------------------|
G|-55555555-5555-8888--55555555-x888/101010--55555555-5555-8888--55555555------4444-|
D|-55555555-5555-8888--66666666-x888/101010--55555555-5555-8888--66666666-3333-5555-|
A|-35555555-3333-6666--66666666-x666/8-8-8---35555555-3333-6666--66666666-3333-5555-|
E|---------------------44444444----------------------------------44444444-1111-3333-|
  
Guitar 2 

e|-33333333-3333-6666--33333333-44444444-----33333333-3333-6666--33333333-44444444--|
B|----------------------------------------------------------------------------------|
G|----------------------------------------------------------------------------------|
D|----------------------------------------------------------------------------------|
A|----------------------------------------------------------------------------------|
E|----------------------------------------------------------------------------------|
   
Outro: 3:34

Guitar 1

e|---------------------------------------------------------|
B|---------------------------------------------------------|
G|---------------------------------------------------------|
D|-55555--3---------7----55555--33333------------7777777\5-| 
A|-33333--1--55555--5----33333--11111--55555555--5555555\3-|
E|-----------33333---------------------33333333------------|

Guitar 2 

e|---------------------------------------------------------------------------------|
B|---------------------------------------------------------------------------------|
G|-8-8-8-8-8---7-------------------8-8-8-8-8---77777-------------------------------|
D|-1010101010--8--8-8-8-8-8---8----1010101010--88888--8-8-8-8-8-8-8-8--8888888\5---| 
A|----------------1010101010--6-----------------------1010101010101010-6666666\3---|
E|---------------------------------------------------------------------------------|


Notes: 
 -On Pre Chorus (4) I prefer to strum on beat chord Cmin and G# to create a build up. 
 -Help would be appreciated on Bridge/Solo for guitar 2.
 -Comments are appreciated.


| /  slide up
| \  slide down
| h  hammer-on
| p  pull-off
| ~  vibrato
| +  harmonic
| x  Mute note
===============================================================================
Tap to rate this tab
# A B C D E F G H I J K L M N O P Q R S T U V W X Y Z