Song name
# A B C D E F G H I J K L M N O P Q R S T U V W X Y Z

Incubus - Rogues tab

Incubus - Rogues

by Michel Franceschino


     E   E    E   E   E    E   E   E    
E||------------------------------------|
B||------------------------------------|
G||------------------------------------|
D||----------(0)----------(0)----------|
A||-----(0)----------(0)----------(0)--|
E||--2------------8------------8-------|


   E   E   E    E   E   E    E   E   
------------------------------------|
------------------------------------|
------------------------------------|
--(0)----------(0)----------(0)-----|
----------(0)----------(0)----------|
-------8------------8------------8--|


   E   E    E    E   E    E    E   E    
---------------------------------------|
---------------------------------------|
---------------------------------------|
-----------(0)-----------(0)-----------|
------(0)-----------(0)-----------(0)--|
--12------------14------------14-------|


   E    E   E    E    E   E    E    E    
----------------------------------------|
----------------------------------------|
----------------------------------------|
--(0)-----------(0)-----------(0)-------|
-----------(0)-----------(0)-------(0)--|
-------14------------14-----------------|


  E   E    E   E   E    E   E   E    
------------------------------------|
------------------------------------|
------------------------------------|
----------(0)----------(0)----------|
-----(0)----------(0)----------(0)--|
--2------------8------------8-------|


   E   E   E    E   E   E    E    E    
--------------------------------------|
--------------------------------------|
--------------------------------------|
--(0)----------(0)----------(0)-------|
----------(0)----------(0)-------(0)--|
-------8------------8-----------------|


   E   E    E    E   E    E    E   E    
---------------------------------------|
---------------------------------------|
---------------------------------------|
-----------(0)-----------(0)-----------|
------(0)-----------(0)-----------(0)--|
--12------------12------------10-------|


   E    E   E    E    E   E    E    E    
----------------------------------------|
----------------------------------------|
----------------------------------------|
--(0)-----------(0)-----------(0)-------|
-----------(0)-----------(0)-------(0)--|
-------10------------10-----------------|


  E   E    E   E   E    E   E   E    
------------------------------------|
------------------------------------|
------------------------------------|
----------(0)----------(0)----------|
-----(0)----------(0)----------(0)--|
--2------------8------------8-------|


   E   E   E    E   E   E    E    E    
--------------------------------------|
--------------------------------------|
--------------------------------------|
--(0)----------(0)----------(0)-------|
----------(0)----------(0)-------(0)--|
-------8------------8-----------------|


   E   E    E    E   E    E    E   E    
---------------------------------------|
---------------------------------------|
---------------------------------------|
-----------(0)-----------(0)-----------|
------(0)-----------(0)-----------(0)--|
--12------------14------------14-------|


   E    E   E    E    E   E    E    E    
----------------------------------------|
----------------------------------------|
----------------------------------------|
--(0)-----------(0)-----------(0)-------|
-----------(0)-----------(0)-------(0)--|
-------14------------14-----------------|


  E   E    E   E   E    E   E   E    
------------------------------------|
------------------------------------|
------------------------------------|
----------(0)----------(0)----------|
-----(0)----------(0)----------(0)--|
--2------------8------------8-------|


   E   E   E    E   E   E    E    E    
--------------------------------------|
--------------------------------------|
--------------------------------------|
--(0)----------(0)----------(0)-------|
----------(0)----------(0)-------(0)--|
-------8------------8-----------------|


   E   E    E    E   E    E    E   E    
---------------------------------------|
---------------------------------------|
---------------------------------------|
-----------(0)-----------(0)-----------|
------(0)-----------(0)-----------(0)--|
--12------------12------------10-------|


   E    E   E    E    E   E    E    E    
----------------------------------------|
----------------------------------------|
----------------------------------------|
--(0)-----------(0)-----------(0)-------|
-----------(0)-----------(0)-------(0)--|
-------10------------10-----------------|


  E  E  E  S S E  E  E  S S  
----------------------------|
----------------------------|
----------------------------|
----------------------------|
------------------5---------|
--x--7--7--L-5-7--------7-7-|


  E  E  E  E  E  E  E  E   
--------------------------|
--------------------------|
--------------------------|
-----------------7-----L--|
-----------5--------------|
--7--5--7-----------5--L--|


  E  E  E  S S E  E  E  S S  
----------------------------|
----------------------------|
----------------------------|
----------------------------|
------------------5---------|
--x--7--7--L-5-7--------7-7-|


  E  E  E  E  E  E  E  E   
--------------------------|
--------------------------|
--------------------------|
-----------------7-----L--|
-----------5--------------|
--7--5--7-----------5--L--|


  E  E  E  S S E  E  E  S S  
----------------------------|
----------------------------|
----------------------------|
----------------------------|
------------------5---------|
--x--7--7--L-5-7--------5-5-|


  S S E  E  E  E  E  E  E   
---------------------------|
---------------------------|
---------------------------|
------------------7-----L--|
------------5--------------|
--7-7-5--7-----------5--L--|


  E  E  E  S S E  E  E  E    
----------------------------|
----------------------------|
----------------------------|
----------------------------|
------------------5--L--5b--|
--x--7--7--L-5-7------------|


  E   E   E   E   E   E   E   E   
---------------------------------|
---------------------------------|
---------------------------------|
---------------------------------|
--5b--5b--5b--5b--5b--5b--5b--5--|
---------------------------------|


  E  E  E  S S E  E  E  S S  
----------------------------|
----------------------------|
----------------------------|
----------------------------|
------------------5---------|
--x--7--7--L-5-7--------7-7-|


  E  E  E  E  E  E  E  E   
--------------------------|
--------------------------|
--------------------------|
-----------------7-----L--|
-----------5--------------|
--7--5--7-----------5--L--|


  E  E  E  S S E  E  E  S S  
----------------------------|
----------------------------|
----------------------------|
----------------------------|
------------------5---------|
--x--7--7--L-5-7--------7-7-|


  E  E  E  E  E  E  E  E   
--------------------------|
--------------------------|
--------------------------|
-----------------7-----L--|
-----------5--------------|
--7--5--7-----------5--L--|


  E  E  E  S S E  E  E  S S  
----------------------------|
----------------------------|
----------------------------|
----------------------------|
------------------5---------|
--x--7--7--L-5-7--------7-7-|


  E  E  E  E  E  E  E  E   
--------------------------|
--------------------------|
--------------------------|
-----------------7-----L--|
-----------5--------------|
--7--5--7-----------5--L--|


  E  E  E  S S E  E  E  E    
----------------------------|
----------------------------|
----------------------------|
----------------------------|
------------------5--L--5b--|
--x--7--7--L-5-7------------|


  E  E  E  E  E  E  E  S S  
---------------------------|
---------------------------|
---------------------------|
---------------------------|
--5--5--5--5--5--5--5--x-x-|
-----------------------x-x-|


  Q    E  S S E  E  E  E   
--------------------------|
--9----9--x-x-9--9-----8--|
--7----7--x-x-7--7-----7--|
--9----9--x-x-9--9-----9--|
--------------------------|
--------------------------|


  E  E  E  S S E  E  S S E   
----------------------------|
--L--8--8--x-x-8--8--L-x----|
--L--7--7--x-x-7--7--L-x-7--|
--L--9--9--x-x-9--9--L-x-9--|
-------------------------9--|
----------------------------|


  E  E  E  S S E  E  E  E   
---------------------------|
---------------------------|
--L--7--7--x-x-7--7-----7--|
--L--9--9--x-x-9--9-----9--|
--L--9--9--x-x-9--9-----9--|
---------------------------|


  E  E  E  S S E  E  E  E   
---------------------------|
--L---------------------9--|
--L--7--7--x-x-7--7-----7--|
--L--9--9--x-x-9--9-----9--|
--L--9--9--x-x-9--9--------|
---------------------------|


  Q    E  S S E  E  E  E   
--------------------------|
--L----9--9-9-9--9-----8--|
--L----7--7-7-7--7-----7--|
--L----9--9-9-9--9-----9--|
--------------------------|
--------------------------|


  E  E  E  S S E  E  E  E   
---------------------------|
--L--8--8--x-x-8--8--8--x--|
--L--7--7--x-x-7--7--7--7--|
--L--9--9--x-x-9--9--9--9--|
------------------------9--|
---------------------------|


  E  E  E  S S E  E  E  E   
---------------------------|
---------------------------|
--L--7--7--x-x-7--7-----7--|
--L--9--9--x-x-9--9-----9--|
--L--9--9--x-x-9--9-----9--|
---------------------------|


  E  E  E  S S E  E  E  E   
---------------------------|
--L---------------------9--|
--L--7--7--x-x-7--7-----7--|
--L--9--9--x-x-9--9-----9--|
--L--9--9--x-x-9--9--------|
---------------------------|


  Q    E  S S E  E  E  E   
--------------------------|
--L----9--x-x-9--9-----8--|
--L----7--x-x-7--7-----7--|
--L----9--x-x-9--9-----9--|
--------------------------|
--------------------------|


  E  E  E  S S E  E  E  E   
---------------------------|
--L--8--8--x-x-8--8--8-----|
--L--7--7--x-x-7--7--7--7--|
--L--9--9--x-x-9--9--9--9--|
------------------------9--|
---------------------------|


  E  E  E  S S E  E  E   E   
----------------------------|
----------------------------|
--L--7--7--x-x-7--7-----10--|
--L--9--9--x-x-9--9------9--|
--L--9--9--x-x-9--9-----10--|
----------------------------|


  E   E   E  S S  E   E  E  E   
-------------------------------|
-------------------------------|
--L--10--10--x-x-10--10-----3--|
--L---9---9--x-x--9---9-----4--|
--L--10--10--x-x-10--10-----4--|
----------------------------2--|


  E  E  Q    E  E  E  E   
-------------------------|
-------------------------|
--L--3--3----3--3--3--3--|
--L--4--4----4--4--4--4--|
--L--4--4----4--4--4--4--|
--L--2--2----2--2--2--0--|


  E  E  Q    E  E  E  E   
-------------------------|
----------------------7--|
--L--3--3----3--3--3--6--|
--L--4--4----4--4--4--8--|
--L--4--4----4--4--4--6--|
--L--0--0----0--0--0-----|


  E  E  E  E  E  E  E  E   
--------------------------|
--L--7--7--L--7--7--7--7--|
--L--6--6--L--6--6--6--7--|
--L--8--8--L--8--8--8--7--|
--L--6--6--L--6--6--6--5--|
--------------------------|


  E  E  Q    E  E  E   E   
--------------------------|
--L--7--7----7--7------x--|
--L--7--7----7--7------x--|
--L--7--7----7--7------9--|
--L--5--5----5--5-----10--|
--------------------------|


   E   E   Q     E   E   E  E   
-------------------------------|
-------------------------------|
---L---------------------------|
---L---9---9-----9--11--12--9--|
---L--10--10----10--10--10--9--|
-------------------------------|


  E  E  Q    E   E   E   E   
----------------------------|
----------------------------|
----------------------------|
--L--9--9----9--11--12--12--|
--L--9--9----9---9---9--12--|
------------------------10--|


  E   E  E   E   E   E   E   E   
--------------------------------|
--------------------------------|
---------L--11--11--11---x------|
--L--12--L------------------12--|
--L--12--L---9---9---9---x--12--|
--L--10---------------------10--|


  E   E  E   E   E   E   E   E   
--------------------------------|
--------------------------------|
---------L--11--11--11---x------|
--L--12--L-------------------9--|
--L--12--L---9---9---9---x--10--|
--L--10-------------------------|


   E   E   Q     E   E   E  E   
-------------------------------|
-------------------------------|
-------------------------------|
---L---9---9-----9--11--12--9--|
---L--10--10----10--10--10--9--|
-------------------------------|


  E  E  Q    E   E   E   E   
----------------------------|
----------------------------|
----------------------------|
--L--9--9----9--11--12--12--|
--L--9--9----9---9---9--12--|
------------------------10--|


  E   E  E   E   E   E   E   E   
--------------------------------|
--------------------------------|
---------L--11--11--11---x------|
--L--12--L------------------12--|
--L--12--L---9---9---9---x--12--|
--L--10---------------------10--|


  E   E  E   E   E   E   E   E   
--------------------------------|
--------------------------------|
---------L--11--11--11---x------|
--L--12--L-------------------9--|
--L--12--L---9---9---9---x--10--|
--L--10-------------------------|


   E   E   Q     E   E   E  E   
-------------------------------|
-------------------------------|
-------------------------------|
---L---9---9-----9--11--12--9--|
---L--10--10----10--10--10--9--|
-------------------------------|


  E  E  Q    E   E   E   E   
----------------------------|
----------------------------|
----------------------------|
--L--9--9----9--11--12--12--|
--L--9--9----9---9---9--12--|
------------------------10--|


  E   E  E   E   E   E   E   E   
--------------------------------|
--------------------------------|
---------L--11--11--11---x------|
--L--12--L------------------12--|
--L--12--L---9---9---9---x--12--|
--L--10---------------------10--|


  E   E  E   E   E   E   E   E   
--------------------------------|
--------------------------------|
---------L--11--11--11---x------|
--L--12--L---x---------------9--|
--L--12--L---9---9---9---x--10--|
--L--10-------------------------|


   E   E   Q     E   E   E  E   
-------------------------------|
-------------------------------|
-------------------------------|
---L---9---9-----9--11--12--9--|
---L--10--10----10--10--10--9--|
-------------------------------|


  E  E  Q    E   E   E  E   
---------------------------|
---------------------------|
------------------------7--|
--L--9--9----9--11--12--7--|
--L--9--9----9---9---9--5--|
------------------------5--|


  E  E  E   E   E   E   E  E   
------------------------------|
------------------------------|
--L--7--L--11--11--11---x--7--|
--L--7--L------------------7--|
--L--5--L---9---9---9---x--5--|
--L--5---------------------5--|


  E  E  E   E   E   E   E  E   
------------------------------|
------------------------------|
--L--7--L--11--11--11---x--7--|
--L--7--L------------------7--|
--L--5--L---9---9---9---x--5--|
--L--5---------------------5--|


  E  E  E   E   E   E   E  E   
------------------------------|
------------------------------|
--L--7--L--11--11--11---x--7--|
--L--7--L------------------7--|
--L--5--L---9---9---9---x--5--|
--L--5---------------------5--|


  E  E  E   E   E   E   E   E   
-------------------------------|
-------------------------------|
--L--7--L--11--11--11--11--11--|
--L--7--L----------------------|
--L--5--L---9---9---9---9---9--|
--L--5-------------------------|


  E  E  E  S S E  E  E  S S  
----------------------------|
----------------------------|
----------------------------|
----------------------------|
------------------5---------|
--x--7--7--L-5-7--------7-7-|


  E  E  E  E  E  E  E  E   
--------------------------|
--------------------------|
--------------------------|
-----------------7-----L--|
-----------5--------------|
--7--5--7-----------5--L--|


  E  E  E  S S E  E  E  S S  
----------------------------|
----------------------------|
----------------------------|
----------------------------|
------------------5---------|
--x--7--7--L-5-7--------7-7-|


  E  E  E  E  E  E  E  E   
--------------------------|
--------------------------|
--------------------------|
-----------------7-----L--|
-----------5--------------|
--7--5--7-----------5--L--|


  E  E  E  S S E  E  E  S S  
----------------------------|
----------------------------|
----------------------------|
----------------------------|
------------------5---------|
--x--7--7--L-5-7--------5-5-|


  S S E  E  E  E  E  E  E   
---------------------------|
---------------------------|
---------------------------|
------------------7-----L--|
------------5--------------|
--7-7-5--7-----------5--L--|


  E  E  E  S S E  E  E  E    
----------------------------|
----------------------------|
----------------------------|
----------------------------|
------------------5--L--5b--|
--x--7--7--L-5-7------------|


  E  E  E  E  E  E  E  S S  
---------------------------|
---------------------------|
---------------------------|
---------------------------|
--5--5--5--5--5--5--5--x-x-|
-----------------------x-x-|


  Q    E  S S E  E  E  E   
--------------------------|
--9----9--x-x-9--9-----8--|
--7----7--x-x-7--7-----7--|
--9----9--x-x-9--9-----9--|
--------------------------|
--------------------------|


  E  E  E  S S E  E  S S E   
----------------------------|
--L--8--8--x-x-8--8--L-x----|
--L--7--7--x-x-7--7--L-x-7--|
--L--9--9--x-x-9--9--L-x-9--|
-------------------------9--|
----------------------------|


  E  E  E  S S E  E  E  E   
---------------------------|
---------------------------|
--L--7--7--x-x-7--7-----7--|
--L--9--9--x-x-9--9-----9--|
--L--9--9--x-x-9--9-----9--|
---------------------------|


  E  E  E  S S E  E  E  E   
---------------------------|
--L---------------------9--|
--L--7--7--x-x-7--7-----7--|
--L--9--9--x-x-9--9-----9--|
--L--9--9--x-x-9--9--------|
---------------------------|


  Q    E  S S E  E  E  E   
--------------------------|
--L----9--9-9-9--9-----8--|
--L----7--7-7-7--7-----7--|
--L----9--9-9-9--9-----9--|
--------------------------|
--------------------------|


  E  E  E  S S E  E  E  E   
---------------------------|
--L--8--8--x-x-8--8--8--x--|
--L--7--7--x-x-7--7--7--7--|
--L--9--9--x-x-9--9--9--9--|
------------------------9--|
---------------------------|


  E  E  E  S S E  E  E  E   
---------------------------|
---------------------------|
--L--7--7--x-x-7--7-----7--|
--L--9--9--x-x-9--9-----9--|
--L--9--9--x-x-9--9-----9--|
---------------------------|


  E  E  E  S S E  E  E  E   
---------------------------|
--L---------------------9--|
--L--7--7--x-x-7--7-----7--|
--L--9--9--x-x-9--9-----9--|
--L--9--9--x-x-9--9--------|
---------------------------|


  Q    E  S S E  E  E  E   
--------------------------|
--L----9--x-x-9--9-----8--|
--L----7--x-x-7--7-----7--|
--L----9--x-x-9--9-----9--|
--------------------------|
--------------------------|


  E  E  E  S S E  E  E  E   
---------------------------|
--L--8--8--x-x-8--8--8-----|
--L--7--7--x-x-7--7--7--7--|
--L--9--9--x-x-9--9--9--9--|
------------------------9--|
---------------------------|


  E  E  E  S S E  E  E   E   
----------------------------|
----------------------------|
--L--7--7--x-x-7--7-----10--|
--L--9--9--x-x-9--9------9--|
--L--9--9--x-x-9--9-----10--|
----------------------------|


  E   E   E  S S  E   E  E  E   
-------------------------------|
-------------------------------|
--L--10--10--x-x-10--10-----3--|
--L---9---9--x-x--9---9-----4--|
--L--10--10--x-x-10--10-----4--|
----------------------------2--|


  E  E  Q    E  E  E  E   
-------------------------|
-------------------------|
--L--3--3----3--3--3--3--|
--L--4--4----4--4--4--4--|
--L--4--4----4--4--4--4--|
--L--2--2----2--2--2--0--|


  E  E  Q    E  E  E  E   
-------------------------|
----------------------7--|
--L--3--3----3--3--3--6--|
--L--4--4----4--4--4--8--|
--L--4--4----4--4--4--6--|
--L--0--0----0--0--0-----|


  E  E  E  E  E  E  E  E   
--------------------------|
--L--7--7--L--7--7--7--7--|
--L--6--6--L--6--6--6--7--|
--L--8--8--L--8--8--8--7--|
--L--6--6--L--6--6--6--5--|
--------------------------|


  E  E  Q    E  E  E   E   
--------------------------|
--L--7--7----7--7------x--|
--L--7--7----7--7------x--|
--L--7--7----7--7------9--|
--L--5--5----5--5-----10--|
--------------------------|


   E   E   Q     E   E   E  E   
-------------------------------|
-------------------------------|
---L---------------------------|
---L---9---9-----9--11--12--9--|
---L--10--10----10--10--10--9--|
-------------------------------|


  E  E  Q    E   E   E   E   
----------------------------|
----------------------------|
----------------------------|
--L--9--9----9--11--12--12--|
--L--9--9----9---9---9--12--|
------------------------10--|


  E   E  E   E   E   E   E   E   
--------------------------------|
--------------------------------|
---------L--11--11--11---x------|
--L--12--L------------------12--|
--L--12--L---9---9---9---x--12--|
--L--10---------------------10--|


  E   E  E   E   E   E   E   E   
--------------------------------|
--------------------------------|
---------L--11--11--11---x------|
--L--12--L-------------------9--|
--L--12--L---9---9---9---x--10--|
--L--10-------------------------|


   E   E   Q     E   E   E  E   
-------------------------------|
-------------------------------|
-------------------------------|
---L---9---9-----9--11--12--9--|
---L--10--10----10--10--10--9--|
-------------------------------|


  E  E  Q    E   E   E   E   
----------------------------|
----------------------------|
----------------------------|
--L--9--9----9--11--12--12--|
--L--9--9----9---9---9--12--|
------------------------10--|


  E   E  E   E   E   E   E   E   
--------------------------------|
--------------------------------|
---------L--11--11--11---x------|
--L--12--L------------------12--|
--L--12--L---9---9---9---x--12--|
--L--10---------------------10--|


  E   E  E   E   E   E   E   E   
--------------------------------|
--------------------------------|
---------L--11--11--11---x------|
--L--12--L-------------------9--|
--L--12--L---9---9---9---x--10--|
--L--10-------------------------|


   E   E   Q     E   E   E  E   
-------------------------------|
-------------------------------|
-------------------------------|
---L---9---9-----9--11--12--9--|
---L--10--10----10--10--10--9--|
-------------------------------|


  E  E  Q    E   E   E   E   
----------------------------|
----------------------------|
----------------------------|
--L--9--9----9--11--12--12--|
--L--9--9----9---9---9--12--|
------------------------10--|


  E   E  E   E   E   E   E   E   
--------------------------------|
--------------------------------|
---------L--11--11--11---x------|
--L--12--L------------------12--|
--L--12--L---9---9---9---x--12--|
--L--10---------------------10--|


  E   E  E   E   E   E   E   E   
--------------------------------|
--------------------------------|
---------L--11--11--11---x------|
--L--12--L-------------------9--|
--L--12--L---9---9---9---x--10--|
--L--10-------------------------|


   E   E   Q     E   E   E  E   
-------------------------------|
-------------------------------|
-------------------------------|
---L---9---9-----9--11--12--9--|
---L--10--10----10--10--10--9--|
-------------------------------|


  E  E  Q    E   E   E  E   
---------------------------|
---------------------------|
------------------------7--|
--L--9--9----9--11--12--7--|
--L--9--9----9---9---9--5--|
------------------------5--|


  E  E  E   E   E   E   E  E   
------------------------------|
------------------------------|
--L--7--L--11--11--11---x--7--|
--L--7--L------------------7--|
--L--5--L---9---9---9---x--5--|
--L--5---------------------5--|


  E  E  E   E   E   E   E  E   
------------------------------|
------------------------------|
--L--7--L--11--11--11---x--7--|
--L--7--L------------------7--|
--L--5--L---9---9---9---x--5--|
--L--5---------------------5--|


  E  E  E   E   E   E   E  E   
------------------------------|
------------------------------|
--L--7--L--11--11--11---x--7--|
--L--7--L------------------7--|
--L--5--L---9---9---9---x--5--|
--L--5---------------------5--|


  E  E  E   E   E   E   E   E   
-------------------------------|
-------------------------------|
--L--7--L--11--11--11--11--11--|
--L--7--L----------------------|
--L--5--L---9---9---9---9---9--|
--L--5-------------------------|


  E  E  E  E   E     E  E  E   
------------------------------|
-----7--9--9b--Lpbr--7--9--7--|
------------------------------|
--9---------------------------|
------------------------------|
------------------------------|


  E  E  S S E   E     E  E  E   
----------9-9b--Lpbr--7--9-----|
--------x-------------------0--|
-----7--x----------------------|
--9----------------------------|
-------------------------------|
-------------------------------|


  Q    E  E   E     E  E  E   
-----------------------------|
-------9--9b--Lpbr--------9--|
--------------------7--------|
--8--------------------8-----|
-----------------------------|
-----------------------------|


  E  E  E  S  S  E    Q       E   
-------------10-10b--10pbr-------|
--------9--x------------------0--|
-----7-----x---------------------|
--8------------------------------|
---------------------------------|
---------------------------------|


   Q      E  S  S  E   E   S  S  E   
--15b----15----15-15--15-----15-15--|
--15b----15----15-15--15--15-15-15--|
-------------0---------------16-16--|
------------------------------------|
------------------------------------|
------------------------------------|


  E   E   S   S  S  S  S  S  S  S  S  S E   
--L--15--15b-15-15-15-15-15-15-15-15-15----|
--L--15--15b-15-15-15-15-15-15-15-15-15-0--|
--L--16---------------------------------0--|
-------------------------------------------|
-------------------------------------------|
-------------------------------------------|


  E  E  E   E  E   E  E   E   
-----------------------------|
---------------8------8------|
-----7--9--10-----10-----10--|
--8--------------------------|
-----------------------------|
-----------------------------|


  E  E   E  E   E  E  E   E   
--9---------9------9------x--|
-----8----------------8---x--|
--------10-----10--------10--|
-----------------------------|
-----------------------------|
-----------------------------|


   Q.      E  Q     Q     
-------------------------|
--15---------------15----|
-------------------------|
----------12--L----------|
-------------------------|
-------------------------|


  E   Q.      Q     Q     
-------------------------|
--L----------15----------|
-------------------------|
-----12------------12----|
-------------------------|
-------------------------|


   Q.      E  Q     Q     
--16---------------16----|
-------------------------|
-------------------------|
----------12--L----------|
-------------------------|
-------------------------|


  E   Q.      Q     Q     
--L----------16----------|
-------------------------|
-------------------------|
-----12------------12----|
-------------------------|
-------------------------|


   E   E   E   E   E   E   E   E   
--14--14--14--14--14--14--14--14--|
----------------------------------|
----------------------------------|
----------------------------------|
----------------------------------|
----------------------------------|


  E   E   E   E   E   E   E  E   
--L--13--13--12--12--11--11--0--|
-----------------------------0--|
--------------------------------|
--------------------------------|
--------------------------------|
--------------------------------|


   E   E   E   E   E   E   E   E   
--------------15--15--16--16--15--|
--15--15--15--15--15--15--15--15--|
--13--13--13--13--13--13--13--13--|
----------12----------------------|
----------------------------------|
----------------------------------|


  Q     E  E   E  E  Q      
---------------------------|
---------------------------|
---------------------------|
--------0---------0--------|
--------0---------0--------|
--3b----0--3b--L--0--3b----|


  S S S S S S S S S S S S S S S S  
--2-2-2-2-2-2-2-2-2-2-2-2-2-2-2-2-|
--3-3-3-3-3-3-3-3-3-3-3-3-3-3-3-3-|
--4-4-4-4-4-4-4-4-4-4-4-4-4-4-4-4-|
----------------------------------|
----------------------------------|
----------------------------------|


  S S S S S S S S S S S S S S S S  
--2-2-2-2-2-2-2-2-2-2-2-2-2-2-2-2-|
--3-3-3-3-3-3-3-3-3-3-3-3-3-3-3-3-|
--4-4-4-4-4-4-4-4-4-4-4-4-4-4-4-4-|
----------------------------------|
----------------------------------|
----------------------------------|


  S S S S S S S S S S S S S S S S  
--2-2-2-2-2-2-2-2-2-2-2-2-2-2-2-2-|
--3-3-3-3-3-3-3-3-3-3-3-3-3-3-3-3-|
--4-4-4-4-4-4-4-4-4-4-4-4-4-4-4-4-|
----------------------------------|
----------------------------------|
----------------------------------|


  S S S S S S S S S S S S S S S S  
--2-2-2-2-2-2-2-2-2-2-2-2-2-2-2-2-|
--3-3-3-3-3-3-3-3-3-3-3-3-3-3-3-3-|
--4-4-4-4-4-4-4-4-4-4-4-4-4-4-4-4-|
----------------------------------|
----------------------------------|
----------------------------------|


  S S S S S S S S S S S S S S S S  
--2-2-2-2-2-2-2-2-2-2-2-2-2-2-2-2-|
--3-3-3-3-3-3-3-3-3-3-3-3-3-3-3-3-|
--4-4-4-4-4-4-4-4-4-4-4-4-4-4-4-4-|
----------------------------------|
----------------------------------|
----------------------------------|


  S S S S S S S S S S S S S S S S  
--2-2-2-2-2-2-2-2-2-2-2-2-2-2-2-2-|
--3-3-3-3-3-3-3-3-3-3-3-3-3-3-3-3-|
--4-4-4-4-4-4-4-4-4-4-4-4-4-4-4-4-|
----------------------------------|
----------------------------------|
----------------------------------|


  S S S S S S S S S S S S S S S S  
--2-2-2-2-2-2-2-2-2-2-2-2-2-2-2-2-|
--3-3-3-3-3-3-3-3-3-3-3-3-3-3-3-3-|
--4-4-4-4-4-4-4-4-4-4-4-4-4-4-4-4-|
----------------------------------|
----------------------------------|
----------------------------------|


  S S S S S S S S S S S S S S  E   
--2-2-2-2-2-2-2-2-2-2-2-2-2-2-----|
--3-3-3-3-3-3-3-3-3-3-3-3-3-3-----|
--4-4-4-4-4-4-4-4-4-4-4-4-4-4-----|
-------------------------------9--|
------------------------------10--|
----------------------------------|


   E   E   E   S  S  E   E   E  E   
-----------------------------------|
-----------------------------------|
---L-------------------------------|
---L---9---9---9--9--9--11--12--9--|
---L--10--10--10-10-10--10--10--9--|
-----------------------------------|


  E  E  E  S S E   E   E   E   
------------------------------|
------------------------------|
------------------------------|
--L--9--9--9-9-9--11--12--12--|
--L--9--9--9-9-9---9---9--12--|
--------------------------10--|


  E   E  E   E   E   E   E   E   
--------------------------------|
--------------------------------|
---------L--11--11--11---x------|
--L--12--L------------------12--|
--L--12--L---9---9---9---x--12--|
--L--10---------------------10--|


  E   E  E   E   E   E   E   E   
--------------------------------|
--------------------------------|
---------L--11--11--11---x------|
--L--12--L-------------------9--|
--L--12--L---9---9---9---x--10--|
--L--10-------------------------|


   E   E   E   S  S  E   E   E  E   
-----------------------------------|
-----------------------------------|
-----------------------------------|
---L---9---9---9--9--9--11--12--9--|
---L--10--10--10-10-10--10--10--9--|
-----------------------------------|


  E  E  E  S S E   E   E   E   
------------------------------|
------------------------------|
------------------------------|
--L--9--9--9-9-9--11--12--12--|
--L--9--9--9-9-9---9---9--12--|
--------------------------10--|


  E   E  E   E   E   E   E   E   
--------------------------------|
--------------------------------|
---------L--11--11--11---x------|
--L--12--L------------------12--|
--L--12--L---9---9---9---x--12--|
--L--10---------------------10--|


  E   E  E   E   E   E   E   E   
--------------------------------|
--------------------------------|
---------L--11--11--11---x------|
--L--12--L-------------------9--|
--L--12--L---9---9---9---x--10--|
--L--10-------------------------|


   E   E   Q     E   E   E  E   
-------------------------------|
-------------------------------|
-------------------------------|
---L---9---9-----9--11--12--9--|
---L--10--10----10--10--10--9--|
-------------------------------|


  E  E  Q    E   E   E   E   
----------------------------|
----------------------------|
----------------------------|
--L--9--9----9--11--12--12--|
--L--9--9----9---9---9--12--|
------------------------10--|


  E   E  E   E   E   E   E   E   
--------------------------------|
--------------------------------|
---------L--11--11--11---x------|
--L--12--L------------------12--|
--L--12--L---9---9---9---x--12--|
--L--10---------------------10--|


  E   E  E   E   E   E   E   E   
--------------------------------|
--------------------------------|
---------L--11--11--11---x------|
--L--12--L-------------------9--|
--L--12--L---9---9---9---x--10--|
--L--10-------------------------|


   E   E   Q     E   E   E  E   
-------------------------------|
-------------------------------|
-------------------------------|
---L---9---9-----9--11--12--9--|
---L--10--10----10--10--10--9--|
-------------------------------|


  E  E  Q    E   E   E  E   
---------------------------|
---------------------------|
------------------------7--|
--L--9--9----9--11--12--7--|
--L--9--9----9---9---9--5--|
------------------------5--|


  E  E  E   E   E   E   E  E   
------------------------------|
------------------------------|
--L--7--L--11--11--11---x--7--|
--L--7--L------------------7--|
--L--5--L---9---9---9---x--5--|
--L--5---------------------5--|


  E  E  E   E   E   E   E  E   
------------------------------|
------------------------------|
--L--7--L--11--11--11---x--7--|
--L--7--L------------------7--|
--L--5--L---9---9---9---x--5--|
--L--5---------------------5--|


  E  E  E   E   E   E   E  E   
------------------------------|
------------------------------|
--L--7--L--11--11--11---x--7--|
--L--7--L------------------7--|
--L--5--L---9---9---9---x--5--|
--L--5---------------------5--|


  E  E  E   E   E   E   E   E   
-------------------------------|
-------------------------------|
--L--7--L--11--11--11--11--11--|
--L--7--L----------------------|
--L--5--L---9---9---9---9---9--|
--L--5-------------------------|


  W                   W                  
-------------------|-------------------||
-------------------|-------------------||
-------------------|-------------------||
-------------------|-------------------||
-------------------|-------------------||
-------------------|-------------------||

Tap to rate this tab
# A B C D E F G H I J K L M N O P Q R S T U V W X Y Z