Guitaretab - guitar tabs
Song name
# A B C D E F G H I J K L M N O P Q R S T U V W X Y Z

Incubus - Certain Shade Of Green Acoustic Live tab

Love this song! looked at the other tabs for the solo but they seemed wrong
so i quickly tabed this out

Artist:Incubus
Song: Certain Shade of Green (live)
Solo

Standed Tuning EBGDAE

Tabed by Disco 
Email big_dave4321@hotmail.com (comments or correction)
[ Tab from: http://www.guitaretab.com/i/incubus/82984.html ]
|----------9-10----------------------------------------------------------|
|--------------12-10---10-h12-10-----------------------------7-----------|
|5h6-5h6------------------------------11h12-11-9-11-9-7--7h9--9-7-9-7-9--|
|------------------------------------------------------------------------|
|------------------------------------------------------------------------|
|------------------------------------------------------------------------|

|-----------------------9--9--9-10/12--12-10-9--10-9--7-9b(10)-9-7-9-10-10-9-7--7-7/88888888----|
|----------------------10-10--------------------------------------------------10----------------|
|10--10/12-10-10-9-9-7/-------------------------------------------------------------------------|
|-----------------------------------------------------------------------------------------------|
|-----------------------------------------------------------------------------------------------|
|-----------------------------------------------------------------------------------------------|
Related for Certain Shade Of Green Acoustic Live tab
×
Certain Shade Of Green Acoustic Live