Song name
# A B C D E F G H I J K L M N O P Q R S T U V W X Y Z

Incubus - New Skin Acoustic tab

Currently being performed at Incubus's live tours is this kickass acoustic version of 
Skin.  I actually spent about two hours on this due to some complications, so please enjoy.

(/) Slide Up  (\) Slide Down  (h) Hammer On  (p) Pull Off  (b) Bend (r) Release (v) 
(tp) Tapping
Standard tuning

VERSE:
"At first I see an open wound..."
e|--7----7----7--7--x---1--1--7--7--7--7----------|
A|--9----9----9--9--x---3--3--9--9--9--9--x--7-7--|
D|-------9----9--9--x---3--3-----9--9--9--x--9-9--|
G|-------8----8--8--x------------8--8--8--x--9-9--|
B|------------------------------------------------|
E|------------------------------------------------|

Repeat, end on "...the new skin breathes"

PRE-CHORUS(x4):
e|--7--7--7--7--7--2--2-----------------|
A|--9--9--9--9--9--4--4--3--3--3--------|
D|--9--9--9--9--9--4--4--5--5--5--------|
G|--8--8--8--8--8--3--3--5--5--5--------|
B|-----------------------5--5--5--------|
E|--------------------------------------|

CHORUS:
"It's all been said..."
e|--5--5--x--------------------------------8------8----8--8-------|
A|--7--7--x--7----7--7--7------8---8----x--10----10--10--10-------|
D|--7--7--x--9----9--9--9------10--10-  x--10----10--10--10-------|
G|-----------9----9--9--9------10--10---x-------------------------|
B|-----------9----9--9--9------10--10---x-------------------------|
E|----------------------------------------------------------------|


e|--5--5--x----------------8---8---x-----------------------|
A|--7--7--x--7----7--7--7--10--10--x------8-----8---8---8--|
D|--7--7--x--9----9--9--9--10--10--x-----10----10--10--10--|
G|-----------9----9--9--9----------------10----10--10--10--|
B|-----------9----9--9--9----------------10----10--10--10--|
E|---------------------------------------------------------|

e|--5--5--x-----------------------------------8------8----8--8------|
A|--7--7--x-----7----7--7--7------8---8----x--10----10--10--10------|
D|--7--7--x-----9----9--9--9------10--10---x--10----10--10--10------|
G|--------------9----9--9--9------10--10---x------------------------|
B|--------------9----9--9--9------10--10---x------------------------|
E

e|--5--5--x--------------------------------------------------------------|
A|--7--7--x-----7----7--7--7------10--10----x---10---10--10---10---------|
D|--7--7--x-----9----9--9--9------12--12----x---12---12--12---12---------|
G|--------------9----9--9--9------12---12---x---12---12--12---12---------|
B|--------------9----9--9--9------12---12---x---12---12--12---12---------|
E|-----------------------------------------------------------------------|

"When will we be new...skin?"

VERSE:
"As outwardly cliche as it may seem..."
e|--7----7----7--7--x---1--1--7--7--7--7--------|
A|--9----9----9--9--x---3--3--9--9--9--9--x--7--|
D|-------9----9--9--x---3--3-----9--9--9--x--9--|
G|-------8----8--8--x------------8--8--8--x--9--|
B|----------------------------------------------|
E|----------------------------------------------|

Repeat, end on "creation takes the stage."

PRE-CHORUS(x4):
e|--7--7--7--7--7--2--2-----------|
A|--9--9--9--9--9--4--4--3--3--3--|
D|--9--9--9--9--9--4--4--5--5--5--|
G|--8--8--8--8--8--3--3--5--5--5--|
B|-----------------------5--5--5--|
E|--------------------------------|

CHORUS 2:
"It's all been said..."
e|--5--5--x--------------------------------8------8----8--8-------|
A|--7--7--x--7----7--7--7------8---8----x--10----10--10--10-------|
D|--7--7--x--9----9--9--9------10--10-  x--10----10--10--10-------|
G|-----------9----9--9--9------10--10---x-------------------------|
B|-----------9----9--9--9------10--10---x-------------------------|
E|----------------------------------------------------------------|


e|--5--5--x----------------8---8---x-----------------------|
A|--7--7--x--7----7--7--7--10--10--x------8-----8---8---8--|
D|--7--7--x--9----9--9--9--10--10--x-----10----10--10--10--|
G|-----------9----9--9--9----------------10----10--10--10--|
B|-----------9----9--9--9----------------10----10--10--10--|
E|---------------------------------------------------------|

e|--5--5--x-----------------------------------8------8----8--8------|
A|--7--7--x-----7----7--7--7------8---8----x--10----10--10--10------|
D|--7--7--x-----9----9--9--9------10--10---x--10----10--10--10------|
G|--------------9----9--9--9------10--10---x------------------------|
B|--------------9----9--9--9------10--10---x------------------------|
E

e|--5--5--x--------------------------------------------------------------|
A|--7--7--x-----7----7--7--7------10--10----x---10---10--10---10---------|
D|--7--7--x-----9----9--9--9------12--12----x---12---12--12---12---------|
G|--------------9----9--9--9------12---12---x---12---12--12---12---------|
B|--------------9----9--9--9------12---12---x---12---12--12---12---------|
E|-----------------------------------------------------------------------|
"...New skin?"

"It's all been seen..."
e|--5--5--x--------------------------------8------8----8--8-------|
A|--7--7--x--7----7--7--7------8---8----x--10----10--10--10-------|
D|--7--7--x--9----9--9--9------10--10-  x--10----10--10--10-------|
G|-----------9----9--9--9------10--10---x-------------------------|
B|-----------9----9--9--9------10--10---x-------------------------|
E|----------------------------------------------------------------|


e|--5--5--x----------------8---8---x-----------------------|
A|--7--7--x--7----7--7--7--10--10--x------8-----8---8---8--|
D|--7--7--x--9----9--9--9--10--10--x-----10----10--10--10--|
G|-----------9----9--9--9----------------10----10--10--10--|
B|-----------9----9--9--9----------------10----10--10--10--|
E|---------------------------------------------------------|

e|--5--5--x-----------------------------------8------8----8--8------|
A|--7--7--x-----7----7--7--7------8---8----x--10----10--10--10------|
D|--7--7--x-----9----9--9--9------10--10---x--10----10--10--10------|
G|--------------9----9--9--9------10--10---x------------------------|
B|--------------9----9--9--9------10--10---x------------------------|
E

e|--5--5--x--------------------------------------------------------------|
A|--7--7--x-----7----7--7--7------10--10----x---10---10--10---10---------|
D|--7--7--x-----9----9--9--9------12--12----x---12---12--12---12---------|
G|--------------9----9--9--9------12---12---x---12---12--12---12---------|
B|--------------9----9--9--9------12---12---x---12---12--12---12---------|
E|-----------------------------------------------------------------------|
"New... skin?"


BREAKDOWN(x8):
e|------------------------------------------------------------3--3-5--5----|
A|0--0---2--2/3\2--2---0-0---2--2/5\4--2---0-0--2--2/3\2---2--5--5/7--7----|
D|2--2---4--4/5\4--4---2-2---4--4/3\2--4---2-2--4--4/5\4---4---------------|
G|-------------------------------------------------------------------------|
B|-------------------------------------------------------------------------|
E|-------------------------------------------------------------------------|

CHORUS 2:
"It's all been said..."
e|--5--5--x--------------------------------8------8----8--8-------|
A|--7--7--x--7----7--7--7------8---8----x--10----10--10--10-------|
D|--7--7--x--9----9--9--9------10--10-  x--10----10--10--10-------|
G|-----------9----9--9--9------10--10---x-------------------------|
B|-----------9----9--9--9------10--10---x-------------------------|
E|----------------------------------------------------------------|


e|--5--5--x----------------8---8---x------------------------|
A|--7--7--x--7----7--7--7--10--10--x------8-----8---8---8---|
D|--7--7--x--9----9--9--9--10--10--x-----10----10--10--10---|
G|-----------9----9--9--9----------------10----10--10--10---|
B|-----------9----9--9--9----------------10----10--10--10---|
E|----------------------------------------------------------|

e|--5--5--x-----------------------------------8------8----8--8------|
A|--7--7--x-----7----7--7--7------8---8----x--10----10--10--10------|
D|--7--7--x-----9----9--9--9------10--10---x--10----10--10--10------|
G|--------------9----9--9--9------10--10---x------------------------|
B|--------------9----9--9--9------10--10---x------------------------|
E

e|--5--5--x--------------------------------------------------------------|
A|--7--7--x-----7----7--7--7------10--10----x---10---10--10---10---------|
D|--7--7--x-----9----9--9--9------12--12----x---12---12--12---12---------|
G|--------------9----9--9--9------12---12---x---12---12--12---12---------|
B|--------------9----9--9--9------12---12---x---12---12--12---12---------|
E|-----------------------------------------------------------------------|"...New skin?"

"It's all been seen..."
e|--5--5--x--------------------------------8------8----8--8-------|
A|--7--7--x--7----7--7--7------8---8----x--10----10--10--10-------|
D|--7--7--x--9----9--9--9------10--10-  x--10----10--10--10-------|
G|-----------9----9--9--9------10--10---x-------------------------|
B|-----------9----9--9--9------10--10---x-------------------------|
E|----------------------------------------------------------------|


e|--5--5--x----------------8---8---x-----------------------|
A|--7--7--x--7----7--7--7--10--10--x------8-----8---8---8--|
D|--7--7--x--9----9--9--9--10--10--x-----10----10--10--10--|
G|-----------9----9--9--9----------------10----10--10--10--|
B|-----------9----9--9--9----------------10----10--10--10--|
E|---------------------------------------------------------|

e|--5--5--x-----------------------------------8------8----8--8------|
A|--7--7--x-----7----7--7--7------8---8----x--10----10--10--10------|
D|--7--7--x-----9----9--9--9------10--10---x--10----10--10--10------|
G|--------------9----9--9--9------10--10---x------------------------|
B|--------------9----9--9--9------10--10---x------------------------|
E

e|--5--5--x--------------------------------------------------------------|
A|--7--7--x-----7----7--7--7------10--10----x---10---10--10---10---------|
D|--7--7--x-----9----9--9--9------12--12----x---12---12--12---12---------|
G|--------------9----9--9--9------12---12---x---12---12--12---12---------|
B|--------------9----9--9--9------12---12---x---12---12--12---12---------|
E|-----------------------------------------------------------------------|
"New... skin?"

VERSE(x3)
e|--7----7----7--7--x---1--1--7--7--7--7------------|
A|--9----9----9--9--x---3--3--9--9--9--9--x--7------|
D|--------9----9--9--x---3--3-----9--9--9--x--9-----|
G|--------8----8--8--x--------------8--8--8--x--9---|
B|--------------------------------------------------|
E|--------------------------------------------------|


Any questions/comments mail me at kagesoujin@hotmail.com
Tap to rate this tab
# A B C D E F G H I J K L M N O P Q R S T U V W X Y Z