Song name
# A B C D E F G H I J K L M N O P Q R S T U V W X Y Z

Incubus - Red Kipper Sandles tab

----------------------------------------------------------------
                  Incubus - Red Kipper Sandles
----------------------------------------------------------------
This song was played live, very short riff, fun to play.
Standard tuning
Tabbed by: Jordan Greczkowski

e|---------------------------------||
B|---------------------------------||
G|---------------------------------||
D|----6-X---6----6-7-7---6---------||
A|--7-----7----7-------7-----------||
E|---------------------------------||

e|---------------------------------||
B|---------------------------------||
G|---------------------------------||
D|----6-X---6-------6-7-7-6--------||
A|--7-----7----7--7----------------||
E|---------------------------------||



e|--12121212121212121212-10101010101010101010-9999999999--||
B|--------------------------------------------------------||
G|--------------------------------------------------------||
D|--------------------------------------------------------||
A|--------------------------------------------------------||
E|--------------------------------------------------------||


e|--7777777777-5555555555-4444444444---------------------||
B|-------------------------------------------------------||
G|-------------------------------------------------------||
D|---------------------------------------6-7-X-6---------||
A|-------------------------------------7-----------------||
E|-------------------------------------------------------||


e|--12121212121212121212-10101010101010101010-9999999999--||
B|--------------------------------------------------------||
G|--------------------------------------------------------||
D|--------------------------------------------------------||
A|--------------------------------------------------------||
E|--------------------------------------------------------||


e|--7777777777-5555555555-4444444444---------------------||
B|-------------------------------------------------------||
G|-------------------------------------------------------||
D|---------------------------------------6-7-6-----------||
A|-------------------------------------7-----------------||
E|-------------------------------------------------------||

thats it, thanks

Tap to rate this tab
# A B C D E F G H I J K L M N O P Q R S T U V W X Y Z